Jem - 24 Chords & Tabs

 

24 Chords & Tabs

Jem Chords & Tabs

Version: 3 Type: Tab

24 Tab

Artist: Jem
Song: "24"
Album: finally woken

tabbed by: Brad Cooper



s=slide
[ Tab from: http://www.guitartabs.cc/tabs/j/jem/24_tab_ver_3.html ]
e|----------------------------------------|
B|----------------------------------------|
G|----------------------------------------|
D|-----4-2-4s5-5-5-5------4-2-------------|
A|---2------------------2-----2-2-2s5-5---|
E|-0------------------0-------------------|


e|----------------------------------------|
B|-----------------------------------5----|
G|-----4-2-4s5-5-5-5------4-2------4------|
D|---2------------------2--------4--------|
A|-0------------------0--------2----------|
E|----------------------------------------|

Thats the intro. It sounds perfect to me so enjoy.