Jeffries Fanclub - I Want More Chords & Tabs

 

I Want More Chords & Tabs

Jeffries Fanclub Chords & Tabs

Version: 1 Type: Tab 0 ratings
1 star 2 stars 3 stars 4 stars 5 stars
comments

I Want More Tab

BAND:		JEFFRIES FAN CLUB
SONG:		I WANT MORE
ALBUM:		FEELING SORRY FOR ALL THE HEARTS WE'VE BROKEN
TABBED BY:	TIM REAVES

THIS IS MY RENDITION OF THE SONG, I KNOW THERE MAY BE SOME ERRORS, BUT IT SOUNDS
PRETTY GOOD, I ENCOURAGE YOU TO EXPAND ON IT.  IT REALLY HELPS IF YOU'VE HEARD THE
SOMG BEFORE, OR YOUR TIMING WILL BE TOTALLY OFF. COMMENTS, QUESTIONS, CORRECTIONS, JUST
WANT TO DROP ME A LINE, YOU CAN E-MAIL ME AT "Punk_guy155@hotmail.com".  ENJOY.

/ = SLIDE     v = DOWNSTROKE     ^ = UPSTROKE     X = MUTE

INTRO:

	GUITAR 1
E-------------------------------------------------------------------
B--9-9-9-9-9-9-9-9---7-7-7-7-7-7-7-7---5-5-5-5-5-5-5-5---X-9---X-7--  7X  
G--9-9-9-9-9-9-9-9---8-8-8-8-8-8-8-8---6-6-6-6-6-6-6-6---X-9---X-8--      
D--9-9-9-9-9-9-9-9---9-9-9-9-9-9-9-9---7-7-7-7-7-7-7-7---X-9---X-9--     A--7-7-7-7-7-7-7-7---9-9-9-9-9-9-9-9---7-7-7-7-7-7-7-7---X-7---X-9--     
E--7-7-7-7-7-7-7-7---9-9-9-9-9-9-9-9---5-5-5-5-5-5-5-5---X-7---X-9--

	GUITAR 2 COME IN AFTER GUITAR 1 GOES THROUGH 2 ROTATIONS OF THE RIFF
E-------------------------------------------------------------------
B-------------------------------------------------------------------
G--9-(LET RING)-----------------------------------------9-9-9-8-8/9-
D-------------------------------------------------------------------
A-------------------------------------------------------------------
E-------------------------------------------------------------------

E-------------------------------------------------------------------
B-------------------------------------------------------------------
G--9-9-9-9-9-9-9-9---8-8-8-8-8-8-8-8---6-6-6-6-6-6-6----9-9-9-8-8/9-
D-------------------------------------------------------------------
A-------------------------------------------------------------------
E-------------------------------------------------------------------

E----------------------------------------------------------------------------------
B--9-9-9-9-9-9-9-9---12-12-12-12-12-12-12-12-12-12---------------------9-9-9-7-7-7-
G----------------------------------------------------9-9-9-9-9-9-9-9---------------
D----------------------------------------------------------------------------------
A----------------------------------------------------------------------------------
E----------------------------------------------------------------------------------

E-------------------------------------------------------------------
B-------------------------------------------------------------------
G--9-9-9-9-9-9-9-9---8-8-8-8-8-8-8-8---6-6-6-6-6-6-6----9-9-9-8-8/9-
D-------------------------------------------------------------------
A-------------------------------------------------------------------
E-------------------------------------------------------------------

E----------------------------------------------12-12-12-12-12-12-12-12-
B--9-9-9-9-9-9-9-9---12-12-12-12-12-12-12-12---------------------------
G----------------------------------------------------------------------
D----------------------------------------------------------------------
A----------------------------------------------------------------------
E----------------------------------------------------------------------

	GUITAR 1	FINISH WITH...
E------------------------------------------------------------------------
B--9-------------7-------------5-------------7-------------9-------------
G--9-(LET RING)--8-(LET RING)--6-(LET RING)--8-(LET RING)--9-(CUT SHORT)-
D--9-------------9-------------7-------------9-------------9-------------
A--7-------------9-------------7-------------9-------------7-------------
E--7-------------9-------------5-------------9-------------7-------------

	GUITAR 2	FINISH WITH...
E--12-(RING)----11-(RING)------9-(RING)-----11-(RING)-----12/DOWN---
B-------------------------------------------------------------------
G-------------------------------------------------------------------
D-------------------------------------------------------------------
A-------------------------------------------------------------------
E-------------------------------------------------------------------

VERSE: SKA STYLE

   v ^   ^ v ^      v ^   ^ v ^     v ^   ^ v ^     v ^   ^ v ^
E--7-7-X-7-7-7----X-7-7-X-7-7-7---X-5-5-X-5-5-5---X-7-7-X-7-7-7-----
B--9-9-X-9-9-9----X-7-7-X-7-7-7---X-5-5-X-5-5-5---X-7-7-X-7-7-7-----
G--9-9-X-9-9-9----X-8-8-X-8-8-8---X-6-6-X-6-6-6---X-8-8-X-8-8-8-----
D--9-9-X----------X-9-9-X---------X-7-7-X---------X-9-9-X-----------
A--7-7-X----------X-9-9-X---------X-7-7-X---------X-9-9-X-----------
E--7-7-X----------X-7-7-X---------X-5-5-X---------X-7-7-X-----------

   v ^ v ^ v ^ v ^ v
E--7-7-7-7-7-7-7-7-7--
B--7-7-7-7-7-7-7-7-7-- SOMETIMES ENDS WITH THIS
G--8-8-8-8-8-8-8-8-8-- PLAYED REALLY FAST
D--9-9-9-9-9-9-9-9-9--
A--9-9-9-9-9-9-9-9-9--
E--7-7-7-7-7-7-7-7-7--

BRIDGE: 

E-------------------------------------------------------------------
B-------------------------------------------------------------------
G-------------------------------------------------------------------  2X
D-------------------------------------------------------------------
A------4-4-7---------4-4-7---------6-6-9---------6-6-9--------------
E--5-5-----------5-5-----------7-7-----------7-7--------------------
[ Tab from: http://www.guitartabs.cc/tabs/j/jeffries_fanclub/i_want_more_tab.html ]
E----------------
B---------------- REPLACE LAST
G---------------- PART OF BRIDGE
D---------------- WITH THIS THE
A--9-9-7-6-4----- SECOND TIME
E----------------

CHORUS:

	GUITAR 1
E-------------------------------------------------------------------------
B-------------------------------------------------------------------------
G-------------------------------------------------------------------------
D---------4-4---9--------------------------------------------------------
A---7--7-------------------6--6---9-----------4--4---7----------6--6---9-
E---------------------7--7--------------5--5--------------7--7-----------

	GUITAR 2
E------------------------------------------------------------------------
B--9-9-9-9-9-9-9-9---7-7-7-7-7-7-7-7---5-5-5-5-5-5-5-5---7-7-7-7-7-7-7-7-
G--9-9-9-9-9-9-9-9---8-8-8-8-8-8-8-8---6-6-6-6-6-6-6-6---8-8-8-8-8-8-8-8-
D--9-9-9-9-9-9-9-9---9-9-9-9-9-9-9-9---7-7-7-7-7-7-7-7---9-9-9-9-9-9-9-9-
A--7-7-7-7-7-7-7-7---9-9-9-9-9-9-9-9---7-7-7-7-7-7-7-7---9-9-9-9-9-9-9-9-
E--7-7-7-7-7-7-7-7---7-7-7-7-7-7-7-7---5-5-5-5-5-5-5-5---7-7-7-7-7-7-7-7-

   I know that       I have            everything....
   But that's        not enough for me.... 
   I know that       I have            everything....    but I want

E-------------------------------------------------------------------
B-------------------------------------------------------------------
G------------------------------------------------------------------- 2X
D-------------------------------------------------------------------
A------4-4-7---------4-4-7---------6-6-9---------6-6-9--------------
E--5-5-----------5-5-----------7-7-----------7-7--------------------

  more
  so much more*....

E--------------------------------------
B--5-5-5-5-5-5-5-5---7-7-7-7-7-7-7-7--- GUITAR 2 PLAY THIS STARTING
G--6-6-6-6-6-6-6-6---8-8-8-8-8-8-8-8--- AT "more*"
D--7-7-7-7-7-7-7-7---9-9-9-9-9-9-9-9---
A--7-7-7-7-7-7-7-7---9-9-9-9-9-9-9-9---
E--5-5-5-5-5-5-5-5---7-7-7-7-7-7-7-7---

SOLOS:  THERE IS A HORN SOLO AND A GUITAR SOLO, I TABBED THE HORN SOLO IF YOU
        DON'T HAVE ANY HORNS.

	HORN SOLO: 
	ONE GUITAR PLAYS SOLO, OTHER PLAYS VERSE CHORDS SLOWLY SKA STYLE

E--------------------------------------------------------------------------
B--------------------------------------------------------------------------
G--------------------------------------------------------------------------
D--------------------------------------------------------------------------
A--7-7-7-7-7---------------------------7-7-7-7-7---------------------------
E------------7-7-7/9---9---9-7-5-4-2---------------7-7-7/9---9---9-7-5-4-2-

E------------------------------------------------------------------------
B------------------------------------------------------------------------
G------------------------------------------------------------------------
D----------------6-6/7-9/11-11-11-9--------6-7-7---6-7-9-7-6-------------
A--7-7-7-7-7---9-----------------------7-7------7-----------9------------
E------------------------------------------------------------------------

E--(PLAY THIS PART 1/2 SPEED)--------------------------------------------
B------------------------------------------------------------------------
G--9---9---8---8---6---6---------------9---9---8---8---6---6-------------
D----9-------9-------7---9---------------9-------9-------7---9-----------
A------------------------------------------------------------------------
E------------------------------------------------------------------------

	GUITAR SOLO (REGULAR SPEED)
	OTHER GUITAR PALYS VERSE CHORDS REGULAR SPEED 

E------------------------------------------------------------------------
B-------------------------------------------------------------10---10----
G--9-9-----9---8-8-----8---6-6-----6---6-8------9---9-11---11---------11-
D------9-9---------9-9---------7-7---9-----9------9------9-------9-------
A------------------------------------------------------------------------
E------------------------------------------------------------------------

E------------------------------------------------------------------------
B--6/9-6---6/9-6---------------------------------------------------------
G--------9-------9-8-8/9-8-6---------------------------------------------
D----------------------------9-------6-7-6-------------------------------
A------------------------------9-7-9------/9-7-6-6/7-6---9---------------
E------------------------------------------------------9-----------------

E------------------------------------------------------------------------
B----------------6/7---6/7------------------7-9-12-9-12^14-12-9----------
G------6-8/9/8-6-----6------------6-8/9/8-6---------------------9--------
D--7-7------------------------7-7----------------------------------------
A------------------------------------------------------------------------
E------------------------------------------------------------------------

	REPEAT CHORUS

	REPEAT INTRO

VERSE 1:

My wife says I don't spend enough time with her.
I spend to much time at work.

But I've got to stay and extra hour,
gotta make that extra dollar.

If you want to be the best you gotta work.

VERSE 2:

Some day I'll be the richest man,
so lazy I can scam.

Well I don't have fun,
and I don't live.

I'd love to take,
but I don't give.

Some day I'll be the richest man.

CHORUS:

I know that I have everything,
but it's not enough for me.

I know that I have everything,
but I want more.

So much more....
Comments