Jefferson Starship - Winds Of Change Chords & Tabs

 

Winds Of Change Chords & Tabs

Jefferson Starship Chords & Tabs

Version: 1 Type: Tab 0 ratings
1 star 2 stars 3 stars 4 stars 5 stars
comments

Winds Of Change Tab

   
##################################################################################
# This file is the author's own work and represents their interpretation of the  #
# song. You may only use this file for private study, scholarship, or research.  #
##################################################################################

Winds Of Change
Jefferson Starship
From the Album-"Winds Of Change"
1982
Written by Pete/Jeanette Sears
Tabbed by Ray Scheidler 

[ Tab from: http://www.guitartabs.cc/tabs/j/jefferson_starship/winds_of_change_tab.html ]
Chords:
          Em       G      Am       C      D
E------------------3----------------------2-----
B--------------------------1-------1------3-----
G--------------------------2--------------2-----
D----------2---------------2-------2------------
A----------2-------2---------------3------------
E------------------3----------------------------


        Em                  G               Am
E-----------------------------------------------
B-----------------------------------------------
G--------------------4--7---4---------4--7---7--
D-------------5--7----------5---5--7------------
A--2--0---------------------5----------------7--
E--------0-----------------------------------8--

                 Em
E-----------------------------------------------
B-----------------------------------------------
G---5----4---7----9----9----9----9--------------
D-----------------9----9----9----9--------------
A---7------------10---10---10---10--------------
E---8-------------------------------------------


(Outro)

Em    C    Em    C   
 Hang on    Hang on  etc.   end on  C D Em
Comments