Jefferson Starship - We Built This City Chords & Tabs

 

We Built This City Chords & Tabs

Jefferson Starship Chords & Tabs

Version: 1 Type: Tab 0 ratings
1 star 2 stars 3 stars 4 stars 5 stars
comments

We Built This City Tab

   
Band - Jefferson Starship
Song - We Built This City

Intro:
e|------------------------|
B|------------------------|
G|------------------------|
D|------------------9--10-|
A|-2--8--7-5--2--8--7--8--|
E|-0--6--5-3--0--6--------|

e|------------------------|
B|------------------------|
G|------------------------|
D|------------------9--10-|
A|-2--8--7-5--2--8--7--8--|
E|-0--6--5-3--0--6--------|

Verse
e|-----------------------------------------------------------------------------------------|
B|-----------------------------------------------------------------------------------------|
G|-5-5-5-5-5-5-5-5-5-5-5-5--3-3-3-3-3-3-3-3-3-3-3--8-8-8-8-8-8-8-8-9-9-9-9-9-9-9-1010101010|
D|-5-5-5-5-5-5-5-5-5-5-5-5--3-3-3-3-3-3-3-3-3-3-3--8-8-8-8-8-8-8-8-9-9-9-9-9-9-9-1010101010|
A|-3-3-3-3-3-3-3-3-3-3-3-3--1-1-1-1-1-1-1-1-1-1-1--6-6-6-6-6-6-6-6-7-7-7-7-7-7-7-8-8-8-8-8-|
E|-----------------------------------------------------------------------------------------|

e|---------|
B|-6-6-5-6-|
G|-5-5-5-5-|
D|---------|
A|---------|
E|---------|

e|-----------------------------------------------------------------------------------------|
B|-----------------------------------------------------------------------------------------|
G|-5-5-5-5-5-5-5-5-5-5-5-5--3-3-3-3-3-3-3-3-3-3-3--8-8-8-8-8-8-8-8-9-9-9-9-9-9-9-1010101010|
D|-5-5-5-5-5-5-5-5-5-5-5-5--3-3-3-3-3-3-3-3-3-3-3--8-8-8-8-8-8-8-8-9-9-9-9-9-9-9-1010101010|
A|-3-3-3-3-3-3-3-3-3-3-3-3--1-1-1-1-1-1-1-1-1-1-1--6-6-6-6-6-6-6-6-7-7-7-7-7-7-7-8-8-8-8-8-|
E|-----------------------------------------------------------------------------------------|


e|-------|
B|-------|
G|-10--9-|
D|-10--9-|
A|-8---7-|
E|-------|


e|-------------------------------------------------------------------------------------|
B|-------------------------------------------------------------------------------------|
G|-7-7-7-7-7-7-7-7---------------10-10-10-10-10-10-10--5-5-5-5-5-5-5--------10------5--|
D|-7-7-7-7-7-7-7-7--8-8-8-8-8-8--10-10-10-10-10-10-10--5-5-5-5-5-5-5--10-10-10--5-5-5--|
A|-5-5-5-5-5-5-5-5--8-8-8-8-8-8--8--8--8--8--8--8--8---3-3-3-3-3-3-3--8--8--8---3-3-3--|
E|------------------6-6-6-6-6-6--------------------------------------------------------|

e|--------------------------|
B|--------------------------|
G|--------------------------|
D|-7-7-7-7-7-7-7-7-7--6--4--|
A|-7-7-7-7-7-7-7-7-7--6--4--|
E|-5-5-5-5-5-5-5-5-5--4--2--|

e|---------------------------------------|
B|---------------------------------------|
G|------------------------------------10-|
D|-7-7-7-7-7-7-7-7-7-7-7-7-7-7--3--7--10-|
A|-7-7-7-7-7-7-7-7-7-7-7-7-7-7--3--7--8--|
E|-5-5-5-5-5-5-5-5-5-5-5-5-5-5--1--5-----|

e|--------------------------------------------------------------|
B|--------------------------------------------------------------|
G|-14-14--12--10-10--1010101010101010--12-12-14-14-14--17-15-14-|
D|-14-14--12--10-10--1010101010101010--12-12-14-14-14--17-15-14-|
A|-12-12--10--8--8---8-8-8-8-8-8-8-8---10-10-12-12-12--15-13-12-|
E|--------------------------------------------------------------|


e|----------------------------------------------------------------|
B|----------------------------------------------------------------|
G|-14-14--12--10-10--1010101010101010--12-12-14-14-14--12--14--10-|
D|-14-14--12--10-10--1010101010101010--12-12-14-14-14--12--14--10-|
A|-12-12--10--8--8---8-8-8-8-8-8-8-8---10-10-12-12-12--10--12--8--|
E|----------------------------------------------------------------|

e|------------------------|
B|------------------------|
G|------------------------|
D|------------------9--10-|
A|-2--8--7-5--2--8--7--8--|
E|-0--6--5-3--0--6--------|

e|------------------------|
B|------------------------|
G|------------------------|
D|------------------9--10-|
A|-2--8--7-5--2--8--7--8--|
E|-0--6--5-3--0--6--------|

Verse
e|-----------------------------------------------------------------------------------------|
B|-----------------------------------------------------------------------------------------|
G|-5-5-5-5-5-5-5-5-5-5-5-5--3-3-3-3-3-3-3-3-3-3-3--8-8-8-8-8-8-8-8-9-9-9-9-9-9-9-1010101010|
D|-5-5-5-5-5-5-5-5-5-5-5-5--3-3-3-3-3-3-3-3-3-3-3--8-8-8-8-8-8-8-8-9-9-9-9-9-9-9-1010101010|
A|-3-3-3-3-3-3-3-3-3-3-3-3--1-1-1-1-1-1-1-1-1-1-1--6-6-6-6-6-6-6-6-7-7-7-7-7-7-7-8-8-8-8-8-|
E|-----------------------------------------------------------------------------------------|

e|---------|
B|-6-6-5-6-|
G|-5-5-5-5-|
D|---------|
A|---------|
E|---------|

e|-----------------------------------------------------------------------------------------|
B|-----------------------------------------------------------------------------------------|
G|-5-5-5-5-5-5-5-5-5-5-5-5--3-3-3-3-3-3-3-3-3-3-3--8-8-8-8-8-8-8-8-9-9-9-9-9-9-9-1010101010|
D|-5-5-5-5-5-5-5-5-5-5-5-5--3-3-3-3-3-3-3-3-3-3-3--8-8-8-8-8-8-8-8-9-9-9-9-9-9-9-1010101010|
A|-3-3-3-3-3-3-3-3-3-3-3-3--1-1-1-1-1-1-1-1-1-1-1--6-6-6-6-6-6-6-6-7-7-7-7-7-7-7-8-8-8-8-8-|
E|-----------------------------------------------------------------------------------------|


e|-------|
B|-------|
G|-10--9-|
D|-10--9-|
A|-8---7-|
E|-------|


e|-------------------------------------------------------------------------------------|
B|-------------------------------------------------------------------------------------|
G|-7-7-7-7-7-7-7-7---------------10-10-10-10-10-10-10--5-5-5-5-5-5-5--------10------5--|
D|-7-7-7-7-7-7-7-7--8-8-8-8-8-8--10-10-10-10-10-10-10--5-5-5-5-5-5-5--10-10-10--5-5-5--|
A|-5-5-5-5-5-5-5-5--8-8-8-8-8-8--8--8--8--8--8--8--8---3-3-3-3-3-3-3--8--8--8---3-3-3--|
E|------------------6-6-6-6-6-6--------------------------------------------------------|

e|--------------------------|
B|--------------------------|
G|--------------------------|
D|-7-7-7-7-7-7-7-7-7--6--4--|
A|-7-7-7-7-7-7-7-7-7--6--4--|
E|-5-5-5-5-5-5-5-5-5--4--2--|

e|---------------------------------------|
B|---------------------------------------|
G|------------------------------------10-|
D|-7-7-7-7-7-7-7-7-7-7-7-7-7-7--3--7--10-|
A|-7-7-7-7-7-7-7-7-7-7-7-7-7-7--3--7--8--|
E|-5-5-5-5-5-5-5-5-5-5-5-5-5-5--1--5-----|

e|--------------------------------------------------------------|
B|--------------------------------------------------------------|
G|-14-14--12--10-10--1010101010101010--12-12-14-14-14--17-15-14-|
D|-14-14--12--10-10--1010101010101010--12-12-14-14-14--17-15-14-|
A|-12-12--10--8--8---8-8-8-8-8-8-8-8---10-10-12-12-12--15-13-12-|
E|--------------------------------------------------------------|

[ Tab from: http://www.guitartabs.cc/tabs/j/jefferson_starship/we_built_this_city_tab.html ]
e|----------------------------------------------------------------|
B|----------------------------------------------------------------|
G|-14-14--12--10-10--1010101010101010--12-12-14-14-14--12--14--10-|
D|-14-14--12--10-10--1010101010101010--12-12-14-14-14--12--14--10-|
A|-12-12--10--8--8---8-8-8-8-8-8-8-8---10-10-12-12-12--10--12--8--|
E|----------------------------------------------------------------|


e|----------------------------------------------------|
B|-17b-17b--17----------------------------------------|
G|-------------17-------19-17-------------------------|
D|----------------17-19-------17b-17-15~~~------------|
A|----------------------------------------------------|
E|----------------------------------------------------|


e|-------------------------|
B|-------------------------|
G|-----10-------------9-10-| x 5
D|-7-7-10--7-7-8-8-8--9-10-|
A|-7-7-8---7-7-8-8-8--7-8--|
E|-5-5-----5-5-6-6-6-------|


e|-----------------------------------|
B|-----------------------------------|
G|-----------------------------8-10--|
D|-8-8-8-8-8-8-8-8--7-7-7-7-7--8-10--|
A|-8-8-8-8-8-8-8-8--7-7-7-7-7--6-8---|
E|-6-6-6-6-6-6-6-6--5-5-5-5-5--------|

Verse
e|-----------------------------------------------------------------------------------------|
B|-----------------------------------------------------------------------------------------|
G|-5-5-5-5-5-5-5-5-5-5-5-5--3-3-3-3-3-3-3-3-3-3-3--8-8-8-8-8-8-8-8-9-9-9-9-9-9-9-1010101010|
D|-5-5-5-5-5-5-5-5-5-5-5-5--3-3-3-3-3-3-3-3-3-3-3--8-8-8-8-8-8-8-8-9-9-9-9-9-9-9-1010101010|
A|-3-3-3-3-3-3-3-3-3-3-3-3--1-1-1-1-1-1-1-1-1-1-1--6-6-6-6-6-6-6-6-7-7-7-7-7-7-7-8-8-8-8-8-|
E|-----------------------------------------------------------------------------------------|

e|------------------------|
B|------------------------|
G|-10-10-10-9-------------|
D|------------10-8-7-8-10-|
A|------------------------|
E|------------------------|

e|-----------------------------------------------------------------------------------------|
B|-----------------------------------------------------------------------------------------|
G|-5-5-5-5-5-5-5-5-5-5-5-5--3-3-3-3-3-3-3-3-3-3-3--8-8-8-8-8-8-8-8-9-9-9-9-9-9-9-1010101010|
D|-5-5-5-5-5-5-5-5-5-5-5-5--3-3-3-3-3-3-3-3-3-3-3--8-8-8-8-8-8-8-8-9-9-9-9-9-9-9-1010101010|
A|-3-3-3-3-3-3-3-3-3-3-3-3--1-1-1-1-1-1-1-1-1-1-1--6-6-6-6-6-6-6-6-7-7-7-7-7-7-7-8-8-8-8-8-|
E|-----------------------------------------------------------------------------------------|

e|-------|
B|-------|
G|-10--9-|
D|-10--9-|
A|-8---7-|
E|-------|

e|---------------------------------------------------------------------------|
B|---------------------------------------------------------------------------|
G|-7-7-7-7-7-7-7-7-7--3-3-3-3-3-3-3-3-3--10-10-10-10-10-10-10--9-9-9-9-9-9-9-|
D|-7-7-7-7-7-7-7-7-7--3-3-3-3-3-3-3-3-3--10-10-10-10-10-10-10--9-9-9-9-9-9-9-|
A|-5-5-5-5-5-5-5-5-5--1-1-1-1-1-1-1-1-1--8--8--8--8--8--8--8---7-7-7-7-7-7-7-|
E|---------------------------------------------------------------------------|

e|--------------------|
B|--------------------|
G|-------10--------5--|
D|-10-10-10---5-5--5--|
A|-8--8--8----3-3--3--|
E|--------------------|

e|------------------------------------------|
B|------------------------------------------|
G|------------------------------------------|
D|-3-3-3-3-3-3--8-8-8-8-8-8-8--7-5--5-5-5-5-|
A|-3-3-3-3-3-3--8-8-8-8-8-8-8--7-5--5-5-5-5-|
E|-1-1-1-1-1-1--6-6-6-6-6-6-6--5-3--3-3-3-3-|

e|------------------------------------------|
B|------------------------------------------|
G|------------------------------------------|
D|-3-3-3-3-3-3--8-8-8-8-8-8-8--7-5--5-5-5-5-|
A|-3-3-3-3-3-3--8-8-8-8-8-8-8--7-5--5-5-5-5-|
E|-1-1-1-1-1-1--6-6-6-6-6-6-6--5-3--3-3-3-3-|


e|-------------------------------------------------------------------------------------|
B|-------------------------------------------------------------------------------------|
G|-7-7-7-7-7-7-7-7---------------10-10-10-10-10-10-10--5-5-5-5-5-5-5--------10------5--|
D|-7-7-7-7-7-7-7-7--8-8-8-8-8-8--10-10-10-10-10-10-10--5-5-5-5-5-5-5--10-10-10--5-5-5--|
A|-5-5-5-5-5-5-5-5--8-8-8-8-8-8--8--8--8--8--8--8--8---3-3-3-3-3-3-3--8--8--8---3-3-3--|
E|------------------6-6-6-6-6-6--------------------------------------------------------|

e|--------------------------|
B|--------------------------|
G|--------------------------|
D|-7-7-7-7-7-7-7-7-7--6--4--|
A|-7-7-7-7-7-7-7-7-7--6--4--|
E|-5-5-5-5-5-5-5-5-5--4--2--|

e|---------------------------------------|
B|---------------------------------------|
G|------------------------------------10-|
D|-7-7-7-7-7-7-7-7-7-7-7-7-7-7--3--7--10-|
A|-7-7-7-7-7-7-7-7-7-7-7-7-7-7--3--7--8--|
E|-5-5-5-5-5-5-5-5-5-5-5-5-5-5--1--5-----|

e|--------------------------------------------------------------|
B|--------------------------------------------------------------|
G|-14-14--12--10-10--1010101010101010--12-12-14-14-14--17-15-14-|
D|-14-14--12--10-10--1010101010101010--12-12-14-14-14--17-15-14-|
A|-12-12--10--8--8---8-8-8-8-8-8-8-8---10-10-12-12-12--15-13-12-|
E|--------------------------------------------------------------|


e|----------------------------------------------------------------|
B|----------------------------------------------------------------|
G|-14-14--12--10-10--1010101010101010--12-12-14-14-14--12--14--10-|
D|-14-14--12--10-10--1010101010101010--12-12-14-14-14--12--14--10-|
A|-12-12--10--8--8---8-8-8-8-8-8-8-8---10-10-12-12-12--10--12--8--|
E|----------------------------------------------------------------|

e|--------------------------------------------------------------|
B|--------------------------------------------------------------|
G|-14-14--12--10-10--1010101010101010--12-12-14-14-14--17-15-14-|
D|-14-14--12--10-10--1010101010101010--12-12-14-14-14--17-15-14-|
A|-12-12--10--8--8---8-8-8-8-8-8-8-8---10-10-12-12-12--15-13-12-|
E|--------------------------------------------------------------|


e|----------------------------------------------------------------|
B|----------------------------------------------------------------|
G|-14-14--12--10-10--1010101010101010--12-12-14-14-14--12--14--10-|
D|-14-14--12--10-10--1010101010101010--12-12-14-14-14--12--14--10-|
A|-12-12--10--8--8---8-8-8-8-8-8-8-8---10-10-12-12-12--10--12--8--|
E|----------------------------------------------------------------|


e|------------------------------|
B|------------------------------|
G|------------------------------|
D|-8-8-8-8-8-8-8-8-8-8--12--10--|
A|-8-8-8-8-8-8-8-8-8-8--12--10--|
E|-6-6-6-6-6-6-6-6-6-6--10--8---|
Comments