Jefferson Starship - Save Your Love Chords & Tabs

 

Save Your Love Chords & Tabs

Jefferson Starship Chords & Tabs

Version: 1 Type: Tab 0 ratings
1 star 2 stars 3 stars 4 stars 5 stars
comments

Save Your Love Tab

   
##################################################################################
# This file is the author's own work and represents their interpretation of the  #
# song. You may only use this file for private study, scholarship, or research.  #
##################################################################################

Save Your Love
Jefferson Starship
From the Album-"Modern Times"
1981
Written by Pete/Jeanette Sears
Tabbed by Ray Scheidler 


Intro:

   Em     C         D        Em              Am
E------------------------2-----------------3--5--
B--(5)-----------------------(5)----3--5---------
G--------(5)---3/5-(3)---------------------------
D------------------------------------------------
A------------------------------------------------
E------------------------------------------------
[ Tab from: http://www.guitartabs.cc/tabs/j/jefferson_starship/save_your_love_tab.html ]
             
              F                G             Am
E---------8---------------8---10---12---15---17--
B--8--10-----10---8---10-------------------------
G------------------------------------------------
D------------------------------------------------
A------------------------------------------------
E------------------------------------------------



                                       F
E--17---15---12---15---12---10--------10---------
B--------------------------------13--------10----
G------------------------------------------------
D------------------------------------------------
A------------------------------------------------
E------------------------------------------------



                              G
E--17---15---12---10---12---(10)----10--10--12---
B------------------------------------------------
G------------------------------------------------
D------------------------------------------------
A------------------------------------------------
E------------------------------------------------



                   Am            G  Am
E---12---15---15---17--17--17---15--17--17--17---
B------------------------------------------------
G------------------------------------------------
D------------------------------------------------
A------------------------------------------------
E------------------------------------------------
Comments