Jefferson Starship - Save Your Love Chords & Tabs

 

Save Your Love Chords & Tabs

Jefferson Starship Chords & Tabs

Version: 1 Type: Chords

Save Your Love Chords

   
Save Your Love
Jefferson Starship
From the Album-"Modern Times"
1981
Written by Pete/Jeanette Sears
Tabbed by Ray Scheidler 


Intro:

   Em     C         D        Em              Am
E------------------------2-----------------3--5--|
B--(5)-----------------------(5)----3--5---------|
G--------(5)---3/5-(3)---------------------------|
D------------------------------------------------|
A------------------------------------------------|
E------------------------------------------------|


              F                G             Am
E---------8---------------8---10---12---15---17--|
B--8--10-----10---8---10-------------------------|
G------------------------------------------------|
D------------------------------------------------|
A------------------------------------------------|
E------------------------------------------------|

                                       F
E--17---15---12---15---12---10--------10---------|
B--------------------------------13--------10----|
G------------------------------------------------|
D------------------------------------------------|
A------------------------------------------------|
E------------------------------------------------|

                              G
E--17---15---12---10---12---(10)----10--10--12---|
B------------------------------------------------|
G------------------------------------------------|
D------------------------------------------------|
A------------------------------------------------|
E------------------------------------------------|

                   Am            G  Am
E---12---15---15---17--17--17---15--17--17--17---|
B------------------------------------------------|
G------------------------------------------------|
D------------------------------------------------|
A------------------------------------------------|
E------------------------------------------------|

Am                      F
Go on out and gain the world

     G               Em              Dm
But don't lose your soul while your trying

Am                            F
Your truth is changing every day

          G                  Em               Dm
But your heart will let you know when you're lying

             Am                      F
Well you're running running from me now

 G                  Em            Dm
Running like you've got a race to win

         Am                    F
Now you tell me our romance is over
[ Tab from: http://www.guitartabs.cc/tabs/j/jefferson_starship/save_your_love_crd.html ]
 G                Em    Dm
Time for you to start again

 Am
Save your love and tenderness

 C
Don't get lost in bitterness

 G                  Em            Dm
Save the dreams you had when we started

Am
Do the things you have to do

 C
Don't forget the love we knew

 G               Em               Dm
Don't lose your love cause we've parted


Break:

   Em        C     D     Em    Am
E-------------------------------5-------3---5---|
B--(5)--3---------(3)----(5)--------5-----------|
G-----------(5)---------------------------------|
D-----------------------------------------------|
A-----------------------------------------------|
E-----------------------------------------------|

   F                     G
E--5-------3---5---8--5-(3)---5-----3--5--8--10-|
B------5-------------------------5--------------|
G-----------------------------------------------|
D-----------------------------------------------|
A-----------------------------------------------|
E-----------------------------------------------|

           Am
E--12--15--17---12--15-------12---------10------|
B-----------------------15---------13-------10--|
G-----------------------------------------------|
D-----------------------------------------------|
A-----------------------------------------------|
E-----------------------------------------------|

Am                                  F
You say you can't tell right from wrong

    G                   Em                  Dm
Confusion's pulled the reins tight in your soul

Am                             F
You think it's all gonna make sense

   G                 Em             Dm
Accomplishments are gonna make you whole

     Am                     F
And following following confusion

 G               Em                 Dm
Running from someone who looks like me

 Am                     F
Stop and take a look beside you now

     G      Em             Dm
And tell me who it is you see

 Am
Save your love and tenderness

 C
Don't get lost in bitterness

 G                  Em            Dm
Save the dreams you had when we started

Am
Do the things you have to do

 C
Don't forget the love we knew

 G               Em            Dm
Don't lose your love cause we parted


Outro: Lead solo on Intro/Verse Chords