Jefferson Starship - Miracles Chords & Tabs

 

Miracles Chords & Tabs

Jefferson Starship Chords & Tabs

Version: 1 Type: Tab 0 ratings
1 star 2 stars 3 stars 4 stars 5 stars
comments

Miracles Tab

   
##################################################################################
# This file is the author's own work and represents their interpretation of the  #
# song. You may only use this file for private study, scholarship, or research.  #
##################################################################################

Miracles
Jefferson Starship
From the Album-"Red Octopus"
1975
Written by Marty Balin
Tabbed by Ray Scheidler
stingray12002@yahoo.com


E-------------------------------------7--3-----
B-------------------------------------------5--
G----------------------------------------------
D-----2--------2--------2--------2-------------
A--0--------0--------0--------0----------------
E--------0-----------------0-------------------



E--(3)--7-7---3-3----------------------------3-
B------------------3-3--5-----------------5----
G--------------------------5--4--2--0--2-------
D----------------------------------------------
A----------------------------------------------
E----------------------------------------------



E--7-7-----------------------------------------
B--------3-3-----------------------------------
G--------------3-3---5------------------------
D------------------------5--4---2---0---2----
A----------------------------------------------
E----------------------------------------------


*****************************************************************************************************************
[ Tab from: http://www.guitartabs.cc/tabs/j/jefferson_starship/miracles_tab.html ]
*****************************************************************************************************************


Runaway
Jefferson Starship
From the Album-"Earth"
1978
Written by N.Q.Dewey
Tabbed by Ray Scheidler 


Chords:

   D7   Fmaj7   Cmaj7   Dm7   Gm7    F    Em7
E---1--------------------1-----3-----1----------
B---3-----1--------------1-----3-----1----------
G---2-----2--------------2-----3-----2----------
D---------3-------1------------3-----3-----0----
A-----------------2------------------------2----
E-----------------------------------------------


  D7                         F
E----------------------------5---5---3-------5---
B--5---5---3-------5---5-----------------6-------
G--------------5---------------------------------
D------------------------------------------------
A------------------------------------------------
E------------------------------------------------


    C                                Fmaj7         
E-------------0----3----1----0-------------------
B--------1------------------------1--------------
G---0----------------------------------2---------
D------------------------------------------------
A------------------------------------------------
E------------------------------------------------


***************************************************************************************************************************

***************************************************************************************************************************

Comments