Jefferson Starship - Jane Chords & Tabs

 

Jane Chords & Tabs

Jefferson Starship Chords & Tabs

Version: 1 Type: Tab 0 ratings
1 star 2 stars 3 stars 4 stars 5 stars
comments

Jane Tab

   
##################################################################################
# This file is the author's own work and represents their interpretation of the  #
# song. You may only use this file for private study, scholarship, or research.  #
##################################################################################

Jane
Jefferson Starship
From the Album-"Freedom At Point Zero"
1979
Written by David Freiberg/Paul Kantner/Craig Chaquico
Tabbed by Ray Scheidler 


Chords:
[ Tab from: http://www.guitartabs.cc/tabs/j/jefferson_starship/jane_tab.html ]
    Em     G     D     A    D/F#  E/G#   F#/A#  
E----------2-----2-------------------------2-----
B----------------3-----3-----3-------------2-----
G----------------2-----3-----2------4------3-----
D----2-----------------3------------2------------
A----2-----3-------------------------------1-----
E----------2-----------------2------4------------


     B    C#m   F#m   A#7
E----2-----4-----2-------------------------------
B----------5-----2-----2-------------------------
G----4-----6-----2-------------------------------
D----4-----6-----4-----2-------------------------
A----2-----4-----4-----1-------------------------
E----------------2-------------------------------




  Em        G                 D        A
E--3--3--3--7--7--7--7--7--7--5--5--5--5--5--5--5-
B--5--5--5--8--8--8--8--8--8--7--7--7--5--5--5--5-
G--4--4--4--7--7--7--7--7--7--7--7--7--6--6--6--6-
D-------------------------------------------------
A-------------------------------------------------
E-------------------------------------------------
Comments