Jefferson Starship - Find Your Way Back Chords & Tabs

 

Find Your Way Back Chords & Tabs

Jefferson Starship Chords & Tabs

Version: 2 Type: Tab 0 ratings
1 star 2 stars 3 stars 4 stars 5 stars
comments

Find Your Way Back Tab

   
Find Your Way Back by Jefferson Starship
-------------

As tabbed by Eric Czerwinski (teamski1@hotmail.com)

 Chords Used:
G: 320033
F: 133211
C: 032010 or 81010988
A: 002220
D: 000232

Acoustic Intro:

This repeats through about half of the song

    G
E|---3-----3-----3------3--------3------3------3------3---------------|
B|-----3-----3-----3------3--------3------3------3------3-------------|
G|--------------------------0-----------------------------0-----------|
D|-------3-----2-----0---------------3------2-------0-----------------|
A|--------------------------------------------------------------------|
E|-3---------------------------3-----------------------------3--------|

..."Trying to get back to my heart..."

F C G F C

..."Find Your Way Back..."   Note that it runs into a G chord

E|---------------------------------------------------------------------|
B|---------------------------------------------------------------------|
G|---------------------------------------------------------------------|
D|---------------------------------------------------------------------|
A|-----------3-3-3----------------------------3-3-3-3-3-3--------------|
E|-1-1-1-1-1-------1-1-1-1-1-3-3-3-1-1-1-1-1------------3-3-3-1-1-1-1-1|

[ Tab from: http://www.guitartabs.cc/tabs/j/jefferson_starship/find_your_way_back_tab_ver_2.html ]
E|---------------------------------------------------------------------|
B|---------------------------------------------------------------------|
G|---------------------------------------------------------------------|
D|---------------------------------------------------------------------|
A|-3-3-3---------------------------------------------------------------|
E|-------1-1-1-1-1-3-3-3-G---------------------------------------------|

Then immediately into this bridge:
    
    G
E|---3--------3-------3-----3---------3------3-------------------------|
B|-----3--------3---3---------3---------3--3---------------------------|
G|----------------0--------------------- 0-----------------------------|
D|---------------------------------------------------------------------|
A|-------3-----------------------3-------------------------------------|
E|-3-------3--------------3--------3-----------------------------------|

Back to Intro Acoustic, then:

..."First to find the heart..."

F C A.....G

..."Find your way back..." As above

..."through the heart..."

G F C G F C A G D A D A

 Then run with the wind:

G F C F G F C Repeating to the end of the song
Comments