Jefferson Starship - Find Your Way Back Chords & Tabs

 

Find Your Way Back Chords & Tabs

Jefferson Starship Chords & Tabs

Version: 1 Type: Tab 0 ratings
1 star 2 stars 3 stars 4 stars 5 stars
comments

Find Your Way Back Tab

   
##################################################################################
# This file is the author's own work and represents their interpretation of the  #
# song. You may only use this file for private study, scholarship, or research.  #
##################################################################################

Find Your Way Back
Jefferson Starship
From the Album-"Modern Times"
1981
Written by Craig Chaquico
Tabbed by Ray Scheidler



Intro/Main Riff Throughout Song:


   G
E-----3------1---0------------------------------
B--------------------3---1---3------------------
G--0-----0-----------------------0--------------
D-----------------------------------------------
A-----------------------------------------------
E-----------------------------------------------


F    C    G    F    C
E----------------------------------------------
B----------------------------------------------
G-------5--------------5-----------------------
D--3----5----5----3----5-----------------------
A--3----3----5----3----3-----------------------
E--1---------3----1----------------------------


   G + Main
E--7-7-7--8--10-------7-7-7--8--7-----10--8--7-
B----------------8-----------------8-----------
G----------------------------------------------
D----------------------------------------------
A----------------------------------------------
E----------------------------------------------



E--8--7-----------13---15---19---20---(15)-----
B--------8---15--------------------------------
G----------------------------------------------
D----------------------------------------------
A----------------------------------------------
E----------------------------------------------


G            G/F       G/C    G/F
E--3----3----3---3-3-3-3---3-3-3--3-3-3-3-3----
B----------------------------------------------
G----------------------------------------------
D----------------------------------------------
A--------------------------3-3-3---------------
E--3----3----3---1-1-1-1----------1-1-1-1-1----
  Find your way back


   G            G/F         G/C
E--3----3----3---3----3--3---3--3-3-3--3-3-3-3-
B----------------------------------------------
G----------------------------------------------
D----------------------------------------------
A----------------------------3--3-3-3--3-3-3-3-
E--3----3----3---1----1--1---------------------
  Find your way back to her heart


[ Tab from: http://www.guitartabs.cc/tabs/j/jefferson_starship/find_your_way_back_tab.html ]
   G            G/F       G/C    G/F
E--3----3----3---3-3-3-3---3-3-3--3-3-3-3-3----
B----------------------------------------------
G----------------------------------------------
D----------------------------------------------
A--------------------------3-3-3---------------
E--3----3----3---1-1-1-1----------1-1-1-1-1----
  Find your way back


   G            G/F          C      G
E--3----3---3----3----3--3---------------------
B----------------------------------------------
G----------------------------5-----------------
D----------------------------5------5----------
A----------------------------3------5----------
E--3----3----3---1----1--1----------3----------
  Find your way back to her heart  



E-----3--------------3-----------0-------------
B--------3--1-----------3--1--2----------------
G--0--------------0----------------------------
D----------------------------------------------
A----------------------------------------------
E----------------------------------------------



E-----3--------------3-----------0-------------
B--------3--1-----------3--1--2----------------
G--0--------------0----------------------------
D----------------------------------------------
A----------------------------------------------
E----------------------------------------------


(Intro/Main: Twice)

F  C   A
E-----------------------------------------------
B---------2-------------------------------------
G-----5---2-------------------------------------
D--3--5---2-------------------------------------
A--3--3-----------------------------------------
E--1--------------------------------------------
     You got no place to be 


G            G/F       G/C    G/F
E--3----3----3---3-3-3-3---3-3-3--3-3-3-3-3----
B----------------------------------------------
G----------------------------------------------
D----------------------------------------------
A--------------------------3-3-3---------------
E--3----3----3---1-1-1-1----------1-1-1-1-1----
  Find your way back


   G            G/F         G/C       G  F  C
E--3----3---3----3----3--3---3-----------------
B----------------------------------------------
G----------------------------------------------
D----------------------------------------------
A----------------------------3-----------------
E--3----3----3---1----1--1---------------------
  Find your way back to her heart  


G        G/F      G/C
Find your way back

(Repeat and Fade)
Comments