Jefferson Blind Lemon - Prison Cell Blues Chords & Tabs

 

Prison Cell Blues Chords & Tabs

Jefferson Blind Lemon Chords & Tabs

Version: 1 Type: Tab 0 ratings
1 star 2 stars 3 stars 4 stars 5 stars
comments

Prison Cell Blues Tab

Artist : Blind Lemon Jefferson
Song   : Prison Cell Blues
________________________________________________
Added by Mikhailo (tabteam@ultimate-guitar.com)
________________________________________________
                                                         
     
E||-------------------------|--------------0----------|--3b--------0---------|
B||-----------0-------------|--------1/-2-------------|----------------------|
G||-----0h-1----------------|-----2-------------------|----------------------|
D||--------2----------2-----|-------------------------|-----------------0----|
A||-------------------------|--0-----------------0----|-------0--------------|
E||--0-----------0-------0--|-----------------0-------|--0---------0---------|

[ Tab from: http://www.guitartabs.cc/tabs/j/jefferson_blind_lemon/prison_cell_blues_tab.html ]
--------------0-------0--|--------------0--------7--|-----------0----------|
-----------0-------------|-----------0-----3/-8-----|------0----3----------|
-----0h-1----------------|-----0h-1-----------------|----------------------|
--------2----------2-----|--------2-----------------|-----------------2----|
--0----------------------|--------------------------|--------------2-------|
--------------0----------|--0-----------0-----------|----------------------|


--------0-------------0--|------------------------|--0---------------------|
-----2----------0--------|---------------------0--|---------------------0--|
--------4----------2-----|---------------0h-1-----|---------------0h-1-----|
-------------------------|-------2----------2-----|-------2----------2-----|
--4----------2-----------|------------------------|------------------------|
-------------------------|--0---------0-----------|--0---------0-----------|


--0-------0------------||
-----------------------||
-----------------------||
-------2----------2----||
-----------------------||
--0----------0---------||
Comments