Jefferson Airplane - White Rabbit Chords & Tabs

 

White Rabbit Chords & Tabs

Jefferson Airplane Chords & Tabs

Version: 1 Type: Tab 0 ratings
1 star 2 stars 3 stars 4 stars 5 stars
comments

White Rabbit Tab

   
#----------------------------------PLEASE NOTE---------------------------------#
#This file is the author's own work and represents their interpretation of the #
#song. You may only use this file for private study, scholarship, or research. #
#------------------------------------------------------------------------------#

From: Mike Bremford 


                   The White Rabbit, by Jefferson Airplane
                           Tabbed by Mike Bremford


Notation: h  - Hammer on                /  - Slide up
          p  - Pull off                 \  - Slide down
          () - Quickly sound this note



Intro: G5 (Just Bass) then G#5 (With drums as well)

Solo: Over  G5 G#5 G5 G#5

  G5                                     G#5
+--------------------------------------+----------------------------------+
+--------------------------------------+----------------------------------+
+-------------------------------9/10---+---------(10)h12-10---------------+
+-----------------------------8--------+--------------------13-12----10\8-+
+-10--------------------10-11----------+----------------------------------+
+-----------------10h11----------------+----------------------------------+


  G5                                  G#5
+-----------------------------------+---------------------------------------+
+-----------------------------------+---------------------------------------+
+-----------------------------------+---------------------------------------+
+----9------------------------------+---------------------------------------+
+-10-------10-11-----------------10-+-11p10---------------------------------+
+------------------11-10---10-11----+-------11-10-8-10-11-10-8h10p8\6-8-6-4-+

Verse 1 Start.
  G5               Bass Tab: (I dont play bass but I think its right.)
+-----+
+-----+            G5                          G#5
+-----+          +-0---0-------------0-----0-+-1---1-------------1-----1-+
+-----+          +---------0-0-0-0-----------+---------1-1-1-1-----------+
+-----+          +---------------------------+---------------------------+
+-3---+          +---------------------------+---------------------------+







From: eisenboc@Informatik.TU-Muenchen.DE (Thomas `E.T.` Eisenbock)
Subject: CRD/TAB : White Rabbit (Jefferson Airplane)
[ Tab from: http://www.guitartabs.cc/tabs/j/jefferson_airplane/white_rabbit_tab.html ]
Here's Dave's version, a bit of overworked. Still some words a missing ( ? ).

Key:
H    - Hammer On
P    - Pull Off
/    - Slide Up
\    - Slide Down
(44) - very slightly played

INTRO

    F#            G                      F
----------------------------------------------------------
T--------------------7H8P7--------------------------------
A---------------8/9--------9--7-6---4\2----3--------------
B---4-----4/5/7--------------------------4----------------
------4/5-------------------------------------------------
----------------------------------------------------------
                   G                                  F#
----------------------------------------------------------
T---------------------------------------------------------
A---------------------------------------------------------
B--4/5-----------4\5-4------------------------------------
-------5\4(44)/5--------5-4--2-4-5-4---2-4-5--4--2--5-----
------------------------------------------------------2---

The Slides could also be Legatos, but I think only Jefferson knows. ;) 
**********************************************************************


white rabbit

(from Surrealistic Pillow, 1967)

bass intro
---------------------------------------------------------------|
---------------------------------------------------------------|
9-9-0--9-099-9-0--9-0910-10-0---10-01010-10-0---10-0109--simile|
-----89---------89-----------910-------------910---------------|


intro

-----------------------------------------------
-------------------------------7h8p7-----------
----------------------7s9------------9-7s6-4s2-
-4-------------4h5s7---------------------------
-----------4h5---------------------------------
-----------------------------------------------

------------------------------------------------------------
------------------------------------------------------------
---2--------------------------------------------------------
-4-----4h5p4-----------4h5-4--------------------------------
-------------5-4---4h5-------5-4--2--4-5-4--2h4p2p0-2-0-----
--------------------------------------------------------0-2-


*************************************************************************************************************

************************************************************************************************************


Comments