Jefferson Airplane - Somebody To Love Chords & Tabs

 

Somebody To Love Chords & Tabs

Jefferson Airplane Chords & Tabs

Version: 2 Type: Bass Tab 0 ratings
1 star 2 stars 3 stars 4 stars 5 stars
comments

Somebody To Love Bass Tab

==================================================================
            SOMEBODY TO LOVE - Jefferson Airplane
==================================================================

Tabbed By: Thayer
Email: livewire2690@comcast.net


Verse

G|----------------------------------2--4-4--2-----|
D|4-4--2---2--4-4--2---2--4-4--2-4------------4-2-|
A|-------4-----------4----------------------------|
E|------------------------------------------------|
[ Tab from: http://www.guitartabs.cc/tabs/j/jefferson_airplane/somebody_to_love_btab_ver_2.html ]
 The verses right before the chorus
G|-----------------------|
D|4-4--2---2--4-4--2-----|
A|-------4-----------4-2-|
E|-----------------------|

==================================================================

Chorus

G|--------------------------------------------------------|
D|--------------------------------------------------------|
A|0-0---------2-2-0-0---------2-2-0-0---------2-2-0-0-----|
E|----0-0-2-2---------0-0-2-2---------0-0-2-2---------0-0-|
Comments