Jefferson Airplane - Plastic Fantastic Lover Chords & Tabs

 

Plastic Fantastic Lover Chords & Tabs

Jefferson Airplane Chords & Tabs

Version: 1 Type: Tab 0 ratings
1 star 2 stars 3 stars 4 stars 5 stars
comments

Plastic Fantastic Lover Tab

   
##################################################################################
# This file is the author's own work and represents their interpretation of the  #
# song. You may only use this file for private study, scholarship, or research.  #
##################################################################################

PLASTIC FANTASTIC LOVER
by JEFFERSON AIRPLANE

tabbed by igorski (Igor Zinken)
comments to e_gor81@hotmail.com
-------------------------------enjoy!

Chords used:

 Am    = X02210
 B     = X24442
 D     = X57775
 Em    = 022000
 Em(2) = X79987

Intro:
------

 Em

Riff:
-----

 E |-------------12---|------------------12|-15b(17)bd-----12---|-------------------------------|------|
 B |-14b(15)-------12-|-15b(17)------------|-----------------12-|-------------------------------|------|
 G |-14b(16)----------|----------------14--|--------------------|-14~~-14~~-14b(16)--(16)bd-p12-|------|
 D |------------------|--------------------|--------------------|-------------------------------|-14~~-|
 A |------------------|--------------------|--------------------|-------------------------------|------|
 E |------------------|--------------------|--------------------|-------------------------------|------|


Chorus 1
Verse 2

Chorus 2:

Solo:
-----
[ Tab from: http://www.guitartabs.cc/tabs/j/jefferson_airplane/plastic_fantastic_lover_tab.html ]
 E |-/12~~----|------12-----12-----12-----12-----12-| < 2 x
 B |-/12~~----|-12h14--12h14--12h14--12h14--12h14---|
 G |----------|-------------------------------------|
 D |----------|-------------------------------------|
 A |----------|-------------------------------------|
 E |----------|-------------------------------------|

 E |-/12~~----|-------12----12-----12-----12-----12-|-------12-------------|
 B |-/12~~----|-12h14--12h14--12h14--12h14--12h14---|-12h14----------12~~\-|
 G |----------|-------------------------------------|----------------------|
 D |----------|-------------------------------------|----------------------|
 A |----------|-------------------------------------|----------------------|
 E |----------|-------------------------------------|----------------------|

 E |----------------------------|--------12--------------------------|
 B |----------------------------|------------------------------------|
 G |----14b(16)-14b(16)-14b(16)-|-14b(16)---14b(16)-14b(16)bd-12-----|
 D |----------------------------|-------------------------------14~~-|
 A |----------------------------|------------------------------------|
 E |----------------------------|------------------------------------|

 E |------------------|----------------|-----|
 B |------------------|------3p0-------|-----|
 G |----------------0-|--2/4------2-0--|-----|
 D |-14~~-14\5~~--2---|----------------|-2---|
 A |------------------|----------------|-----|
 E |------------------|----------------|-----|

Verse 3

Chorus 3:
---------

 Am
 Data control

     D
 and IBM,

 Em(2)                D
 science is mankind's brother,

     Am
 but all I see

    D
 is draining me on my

 B
 plastic fantastic lover.

Outro:
------

 Em
Comments