Jefferson Airplane - Its No Secret Chords & Tabs

 

Its No Secret Chords & Tabs

Jefferson Airplane Chords & Tabs

Version: 2 Type: Bass Tab 0 ratings
1 star 2 stars 3 stars 4 stars 5 stars
comments

Its No Secret Bass Tab

It's No Secret - Jefferson Airplane

  intro                                verse riff     "cause I love you""It's no secret"
G|------------------------------7-5--|---------------|-----------------|---------------|
D|33333333/8-6-33333333/8-6-3-8------|---------------|-----------------|----5----------|
A|-----------------------------------|----5----------|--------------456|6-66-6304-03045|
E|-----------------------------------|6-66-6304-03045|4-04-0456-06-6---|---------------|
[ Tab from: http://www.guitartabs.cc/tabs/j/jefferson_airplane/its_no_secret_btab_ver_2.html ]
   "As I get older, the years.."          that ends like this
G|-------------------------------------|---------5--------------5-------------------------------|
D|-------------------------------------|---456-66-6304-030456-66-6304-03045----5--------------5-|
A|6-666-666-666-666-666-666-666-666-666|-46--------------------------------6-66-6304-030456-66-6|
E|-------------------------------------|5-------------------------------------------------------|


  This is how the verse parts should hook together
G|---------------------------------------------------------------------------------------------|
D|--------------------------------------------------5--------------5---------------------------|
A|----5--------------5------------------------456-66-6304-030456-66-6304-03045----5------------|
E|6-66-6304-030456-66-6304-030454-04-0456-06-6--------------------------------6-66-6304-030456-|

tabbed by Achilles (blue_sincere@hotmail.com)
Comments