Jefferson Airplane - High Flyin Bird Chords & Tabs

 

Jefferson Airplane Chords & Tabs

Version: 1 Type: Tab 0 ratings
1 star 2 stars 3 stars 4 stars 5 stars
comments

High Flyin Bird Tab

   
Jefferson Airplane
"high flyin bird" (live)

4
4tempo     ~ vibrato ^bend up

intro (12 srting)
    Bm          E
e--2---------|--------||-----------------------------------------------------|
b--3-------3-|--------||-----------------------------------------------------|
g--4-------1-|-1--1---||-----------------------------------------------------|
d--4--0-4----|-2----2-||-----------------------------------------------------|
a--2---------|-2------||-----------------------------------------------------|
E--2---------|--------||-----------------------------------------------------|
Lead-jorma
e------|-------------------|-----------7--|------7-----|-------7-------------|
b------|---------(11)--(11)|--------------|-10^--------|-10^-----------------|
g------|----7--9--9^----9^-|--9^rp7-------|-10^-----7~-|-10^-------7~--------|
d----7-|-/9----------------|--------9-----|------------|---------------------|
a-/9---|-------------------|--------------|------------|---------------------|
E------|-------------------|--------------|------------|---------------------|
[ Tab from: http://www.guitartabs.cc/tabs/j/jefferson_airplane/high_flyin_bird_tab.html ]
e-------||-------------------------------------------|
b-10^---||-------------------------------------------|
g-10^---||-------------------------------------------|
d-------||-------------------------------------------|
a-------||-------------------------------------------|
E-------||-------------------------------------------|
VERSE
  Bm         E                   Bm       F#         Bm
e---------|----------|--------|--------|---------|-----------|------------|
b---------|----------|--------|--------|---------|-----------|------------|
g---------|----------|-repeat-|--------|---------|-----------|------------|
d---------|----------|--------|--------|---------|-----------|------------|
a---------|----------|--------|--------|---------|-----------|------------|
E---------|----------|--------|--------|---------|-----------|------------|
                                      Chorus
  G        A        F#                 Bm         E          Bm
e-------|--------|--------|---------||---------|----------|----------|
b-------|--------|--------|---------||---------|----------|----------|
g-------|--------|--------|---------||---------|----------|----------|
d-------|--------|--------|---------||---------|----------|----------|
a-------|--------|--------|---------||---------|----------|----------|
E-------|--------|--------|---------||---------|----------|----------|
           half beats
   E        Bm     A     G      F#     Bm       E
e--------|------------|-------------|---------|----------||
b--------|------------|-------------|---------|----------||
g--------|------------|-------------|---------|---------.||
d--------|------------|-------------|---------|---------.||
a--------|------------|-------------|---------|----------||
E--------|------------|-------------|---------|----------||

enjoy please rate*

Lyrics

There's a high flyin' bird, flyin' way up in the sky....
and I wonder if she looks down as she goes on by,
well, she's flyin' so free and easy in the sky,
lord look at me, I'm rooted like a tree
got those sit down , can't cry, Oh Lord, I'm gonna die blues

Now the sun, it comes up and it lights up the day,
and when he gets tired, lord goes on down his way,
to the east and to the west, he meets God everyday,
Lord look at me, I'm rooted like a tree...
got the sit down , can't cry, Oh Lord, I'm gonna die blues

Now I had a woman, Lord she lived down by the mine
she ain't never seen the sun Oh, Lord, never stopped crying,
then one day my woman, up and died,
Lord she up and died now....oh lord she up and died now
Hey, she wanted to fly and the only way to fly is die, die, die.....

Well, there's a high flyin' bird, flyin' way up in the sky....
and I wonder if she looks down as she goes on by,
well, she's flyin' so free and easy in the sky,
Hey, lord look at me, I'm rooted like a tree
Got those sit down , can't cry, Oh Lord, I'm gonna die blues
Got those sit down , can't cry, Oh Lord, I'm gonna die blues
Hey, Yeah, Hey, Yeah....
Comments