Jefferson Airplane - Comin' Back To Me Chords & Tabs

 

Comin' Back To Me Chords & Tabs

Jefferson Airplane Chords & Tabs

Version: 2 Type: Tab 0 ratings
1 star 2 stars 3 stars 4 stars 5 stars
comments

Comin' Back To Me Tab

   
#----------------------------------PLEASE NOTE---------------------------------#
#This file is the author's own work and represents their interpretation of the #
#song. You may only use this file for private study, scholarship, or research. #
#------------------------------------------------------------------------------#
From: Paul Zimmerman 
Subject: TAB: Comin' Back To Me - Jefferson Airplane

COMIN' BACK TO ME
Jefferson Airplane

Part A: Verse

      F                 D#                F                 D#
  e||-----------------|-----------------|-----------------|-----------------|
  B||-----------------|-----------------|-----------------|-----------------|
4 G||-----6-----6-----|-----4-----4-----|----6------6-----|-----4-----4-----|
- D||-----------------|---4-----4-----4-|-----------------|---4-----4-----4-|
4 A||-8-9---8-9---8-9-|-6-----6-----6---|-8-9---8-9---8-9-|-6-----6-----6---|
  E||-----------------|-----------------|-----------------|-----------------|

   C#                D#
e|-----------------|-----------------||
B|-----------------|-----------------||
G|-----6-----6-----|-----4-----4-----||
D|---6-----6-----6-|---4-----4-----4-||
A|-4-----4-----4---|-6-----6-----6---||
E|-----------------|-----------------||

Part B: Pre-Chorus
[ Tab from: http://www.guitartabs.cc/tabs/j/jefferson_airplane/comin_back_to_me_tab_ver_2.html ]
      D#    F           F#
  e||-------------|   |-----------------||
  B||-------------|   |---0-----0-------||
3 G||-----4-----6-| 4 |-----------------||
- D||---6-----8---| - |-----8-----8---8-||
4 A||-6-----8-----| 4 |-9-----9-----9---||
  E||-------------|   |-----------------||

repeat 3X

Part C: Chorus

    F#
e||-----------------|-----------------||
B||-----------------|-----------------||
G||-----3-----3-----|-----3-----3-----||
D||---4-----4-----4-|---4-----4-----4-||
A||-----------------|-----------------||
E||-2-----2-----2---|-2-----2-----2---||

Part D: Bridge

   C#
e||-----------------|-----------------||
B||-----7-----7-----|-----4-----4-----||
G||-----------------|-----------------||
D||---6-----6-----6-|---6-----6-----6-||
A||-4-----4-----4---|-4-----4-----4---||
E||-----------------|-----------------||

repeat 5X




Intro:
play parts A, B, and C 2X, second time with recorder solo


Part B:
   D#  F  F#
           I saw you
   D#  F  F#
           I saw you
   D#  F  F#
                     Comin'...

Part C:
   C#
...back to me


play parts A, B, and C (with recorder solo) and fade out


Peace,
Paul Z                      audsm@asuvm.inre.asu.edu
--

  "A life without cause is a life without effect" - Dildano, 'Barbarella'

~~~~~~~~~~~~~~~~~~~~~~~~~~~~~~~~~~~~~~~~~~~~~~~~~~~~~~~~~~~~~~~~~~~~~~~~~
Comments