Jefferson Airplane - Comin' Back To Me Chords & Tabs

 

Comin' Back To Me Chords & Tabs

Jefferson Airplane Chords & Tabs

Version: 1 Type: Tab 0 ratings
1 star 2 stars 3 stars 4 stars 5 stars
comments

Comin' Back To Me Tab

   
##################################################################################
# This file is the author's own work and represents their interpretation of the  #
# song. You may only use this file for private study, scholarship, or research.  #
##################################################################################

From: Harlan L Thompson 

COMIN' BACK TO ME- Jefferson Airplane

TUNING: E B E G# B E (E chord)
CAPO on 2nd fret

Part A: Verse

  e ||------------------|-----------------|
  B ||------------------|-----------------|
4 G#||-----3------3-----|-----1-----1-----|  (repeat)
- E ||---0------0-----0-|---0-----0-----0-|
4 B ||-4------4-----4---|-2-----2-----2---|
  E ||------------------|-----------------|

e |-----------------|-----------------||
B |-----------------|-----------------||
G#|-----3-----3-----|-----1-----1-----||
E |---2-----2-----2-|---0-----0-----0-||
B |-0-----0-----0---|-2-----2-----2---||
E |-----------------|-----------------||

Part B: Pre-Chorus

  e ||-------------|   |-----------------||
  B ||-------------|   |-----------------||
3 G#||-----1-----3-| 4 |-----0-----0-----||
- E ||---2-----4---| - |---5-----5-----5-||
4 B ||-2-----4-----| 4 |-5-----5-----5---||
  E ||-------------|   |-----------------||

repeat 3X
[ Tab from: http://www.guitartabs.cc/tabs/j/jefferson_airplane/comin_back_to_me_tab.html ]
Part C: Chorus
     (E chord)
e ||-----------------|-----------------||
B ||-----------------|-----------------||
G#||-----0-----0-----|-----0-----0-----||
E ||---0-----0-----0-|---0-----0-----0-||
B ||-----------------|-----------------||
E ||-0-----0-----0---|-0-----0-----0---||

or

e ||---------0-------|---------0-------||
B ||-----------0---0-|-----------0---0-||   (or any other variation)
G#||-----0-------0---|-----0-------0---||
E ||---0---0---------|---0---0---------||
B ||-----------------|-----------------||
E ||-0---------------|-0---------------||

Part D: Bridge
e ||------0-------0---|-----------------||
B ||--------0-------0-|-----3-------3---||
G#||------------------|-------1-------1-||
E ||---2--------2-----|---2-------2-----||
B ||-0--------0-------|-0-------0-------||
E ||------------------|-----------------||

repeat 5X

Intro:
play parts A, B, and C two times, second time with recorder solo

Part A

Part B:
           I saw you  I saw you
                     Comin'...
Part C:
...back to me


play parts A, B, and C (with recorder solo) and fade out



(from Surrealistic Pillow, 1967)
(sent by Harlan at harlant@hawaii.edu)
NOTE: this is basically plagarized from the previous version except that I
discovered the song is in an alternate tuning.  I am very unsure about 
the bridge.
I hope some can improve upon it!
Comments