Jeff Wayne - Eve Of The War Chords & Tabs

 

Eve Of The War Chords & Tabs

Jeff Wayne Chords & Tabs

Version: 1 Type: Tab

Eve Of The War Tab

E||-------------|-----------------------------|---------------------|
B||-------------|----2--------2-------2-------|----2-3-2------------|
G||-5-3-5-3-5-3-|-5-----3--5----3--5----3--5--|-5--------5--1--5--4-|
D||-------------|-----------------------------|-------------------5-|
A||-------------|-----------------------------|---------------------|
E||-------------|-----------------------------|---------------------|
[ Tab from: http://www.guitartabs.cc/tabs/j/jeff_wayne/eve_of_the_war_tab.html ]
-----------------|--------------------------------------------------|
-----------------|----2-----2-5--3--2----------2-3-2-------3---3----|
-----5-3-5-3-5-3-|-5----3-5-----------5--5---5-------5--5----2---5--|
-----------------|--------------------------------------------------|
-----------------|--------------------------------------------------|
-----------------|--------------------------------------------------|

The only tabs i found for this part of the song were for the electric, so i wrote some 
are easy to play on the acuistic.

Tabbed by William Merrylees