Jeff Healey - Confidence Man Chords & Tabs

 

Confidence Man Chords & Tabs

Jeff Healey Chords & Tabs

Version: 1 Type: Tab 0 ratings
1 star 2 stars 3 stars 4 stars 5 stars
comments

Confidence Man Tab

Tabbed by: Dorteater
Band: The Jeff Healey Band
Song: Confidence man 

Sorry but i am to lazy to figure out the whole song but i did get the intro riff
[ Tab from: http://www.guitartabs.cc/tabs/j/jeff_healey/confidence_man_tab.html ]
e-----------------15^-13--------I
b-15~-(15~)-(15~)-------15------I
g-------------------------------I
D-------------------------------I
A-------------------------------I
E-------------------------------I

e---------------13-13/15/13-----I
b---------------------------15--I
g-------------------------------I
D-16^-14------------------------I
A--------16-16------------------I
E-------------------------------I
Comments