Jeff Healey - Angel Eyes Chords & Tabs

 

Angel Eyes Chords & Tabs

Jeff Healey Chords & Tabs

Version: 2 Type: Tab 0 ratings
1 star 2 stars 3 stars 4 stars 5 stars
comments

Angel Eyes Tab

   
Jeff Healey - Angel Eyes


Intro (electric, w/chorus)

e|-----------------------------|
B|-----5-----3-------1---------|
G|-------5-----4-------2-------| x4
D|---5-----5-----5-------3-----|
A|-3---------------5-------3---|
E|-----------------------------|

Verse (electric + acoustic)
                   x2
e|---0---0---0---3--|--1---0---1---0---|--1---0---2---|
B|---1---0---1---0--|--1---0---3---1---|--1---0---1---|
G|---0---0---2---0--|--2---0---2---0---|--2---0---2---|
D|---2---2---3---0--|--3---2---0---2---|--3---2---0---|
A|---3---2---0---2--|--3---2---0---3---|--3---2-------|
E|-------0-------3--|--1---0-----------|--1---0-------|

Chorus (electric + acoustic)
		  x2			             -back to intro
e|--0---0---1---3--|--1---0---0---0---|--1---0---3---0---|
B|--1---0---1---0--|--1---1---0---1---|--1---1---0---1---|
G|--0---0---2---0--|--2---0---1---2---|--2---0---0---0---|
D|--2---2---3---0--|--3---2---2---2---|--3---2---0---2---|
A|--3---2---3---2--|--3---3---2---0---|--3---3---2---3---|
E|------0---1---3--|--1-------0-------|--1-------3-------|

Bridge (electric + acoustic)

e|--1---0--1-0---|--1---0---|--1---0---|--0---|--1---0---|--1---0---|--1---0---1---3---|
B|--1---1--1-1---|--1---1---|--1---1---|--1---|--1---1---|--1---1---|--3---0---1---0---|
G|--2---0--2-0---|--2---0---|--2---0---|--2---|--2---0---|--2---2---|--2---0---2---0---|
D|--3---2--3-2---|--0---2---|--3---2---|--2---|--3---2---|--0---2---|--0---2---3---0---|
A|--3---3----3---|----------|--3---3---|--0---|--3---3---|------0---|------2---3---2---|
E|--1------------|----------|--1-------|------|--1-------|----------|------0---1---3---|

Lead Fills
   1.		 2.		3.		       4.		 5.		      6.
e|-------------|-5-3----------|----------------------|-5-3-1-----------|--------------------|-8-7----------------|
B|-----1-3-3/5-|-----6-5-3-1v-|----------------------|-------3/5--3--1-|-----1-3b(3)-1-3----|-----10-8-----------|
G|-0-2---------|--------------|----------------------|-----------------|-0-2-------------2v-|----------9-7-5-7-5-|
D|-------------|--------------|----------------------|-----------------|--------------------|--------------------|
A|-------------|--------------|-17b-17b(17)-15-17-15-|-----------------|--------------------|--------------------|
E|-------------|--------------|----------------------|-----------------|--------------------|--------------------|

Guitar Solo
[ Tab from: http://www.guitartabs.cc/tabs/j/jeff_healey/angel_eyes_tab_ver_2.html ]
  C                 C         G   F             C             G         F      C          G       F
e|-8---------------|-------------------------|----------8----10b(10)p8-10p8-|-8----------5p3------------|--|
B|---12p10p8-----8-|-------------------------|-----8h10---10----------------|---10p8-8\5-----5---5------|--|
G|-----------7/9---|-7/9-9\7p5-7-5------7----|-7/9--------------------------|------------------7---7-5-7/9-|
D|-----------------|---------------7h10---10-|------------------------------|---------------------------|--|
A|-----------------|-------------------------|------------------------------|---------------------------|--|
E|-----------------|-------------------------|------------------------------|---------------------------|--|

Outro Solo

e|--------------------------------------------------------------------------------------------|
B|--------------------------------------------------------------------------------12\10-------|
G|-----------------12-14--------------------------------------------------14--12--------14\12-|
D|----------12-14--------12--12b-12b-10--------10-12/14-12-10\9-------------------------------|
A|-12h14-15------------------------------10-12------------------12\10-10----------------------|
E|--------------------------------------------------------------------------------------------|

e|------------------------------------------------------------------------------------------|
B|-------------------------------------------15b-15b-15b-15b-15b-15b-15b(15)-13-15-13-------|
G|12--------------------------12-------12-14------------------------------------------13/14-|
D|---12b(12)12-------10-12/14----12-14------------------------------------------------------|
A|-------------10-12------------------------------------------------------------------------|
E|------------------------------------------------------------------------------------------|

e|--------------------------15b15-------------------------------------------------------------------------|
B|-13-15/17-17\15-15--------------15b13-13h15-15-------12h13131313121212----15b 15b 15b-15-13-15-15b(15)v-|
G|-------------------12-12v----------------------12-12-------------------14-------------------------------|
D|--------------------------------------------------------------------------------------------------------|
A|--------------------------------------------------------------------------------------------------------|
E|--------------------------------------------------------------------------------------------------------|

e|-15/17-------15-17-15--15-19-17-15-15------------------------------17--15 17-17b-17----------12---12---12-|
B|--------------------------------------15b-15b-15b-15b-15b-15-13-12------------------13-15-15b--15b--15b---|
G|----------------------------------------------------------------------------------------------------------|
D|----------------------------------------------------------------------------------------------------------|
A|----------------------------------------------------------------------------------------------------------|
E|----------------------------------------------------------------------------------------------------------|

e|----12---12---12---12----------------...
B|-15b--15b--15b--15b---15b(15)-13-15--...
G|-------------------------------------... fade out
D|-------------------------------------...
A|-------------------------------------...
E|-------------------------------------...

Overall it sounds pretty close...


Thanks to tinus@utctu1.ct.utwente.nl (Martijn Oversteegen)

Corrections or suggestions: sl_a_s_h@hotmail.com
Comments