Jeff Buckley - We Could Be So Happy Baby Chords & Tabs

 

We Could Be So Happy Baby Chords & Tabs

Jeff Buckley Chords & Tabs

Version: 1 Type: Tab 0 ratings
1 star 2 stars 3 stars 4 stars 5 stars
comments

We Could Be So Happy Baby Tab

   
----------------------------------------------------------------------------
         We Could Be So Happy Baby  - Jeff Buckley                         
----------------------------------------------------------------------------
Tabbed by:floor demon
Email:floordemon@hotmail.com

Tuning:EADGBE

Guitar 1- Intro/ verse
E|-------------------------------------------------------------------------|
B|-------------------------------------------------------------------------|
G|-------------------------------------------------------------------------|
D|-------2---0-------0-------0---0-------0---------------------------------|
A|-----2---2---2---2-------2---2---2---2-----------------------------------|
E|---0-----------3-------2-----------2-------------------------------------|


2nd guitar on the intro somewhere
e|------------------------------------------------------------------------|
B|------------------------------------------------------------------------|
G|------------------------------------------------------------------------|
D|------------------------------------------------------------------------|
A|-9s0--3---2-------------------------------------------------------------|
E|------------------------------------------------------------------------|

verse

A5- 577XXX
G5- 355XXX
F5- 133XXX

There痴 no easy answer
None to blame or forgive
Two cripples dancing
To the end we live
A5      
I知 not with you not of you
G5                       F5
Not with you, not of you

You are soft and young to me
I am the ghost who comes and goes
And I hope I値l catch you
A5
In the throws of one last look at the wonder
G5                     F5
One last look at the wonder


Chorus
[ Tab from: http://www.guitartabs.cc/tabs/j/jeff_buckley/we_could_be_so_happy_baby_tab.html ]
Oh, God, I love you
And all the past we once knew
Some other love becomes you
Whatever else we come to
I know we could be so happy, baby
If we wanted to be

Chorus 

      Em    Bm   Em   Bm    C    G   E7
e|-----7-----7----7---7-----8----------------------------------------------|
B|-----8-----7----8---7-----8----7----0------------------------------------|
G|-----9-----7----9---7-----9----7----7------------------------------------|
D|-----9-----9----9---9-----10---7----6------------------------------------|
A|-----7-----9----7---9-----10---9----5------------------------------------|
E|-----------7--------7-----8---------4------------------------------------|


And so on for the rest of the song


You are soft and young to me
I am the ghost who comes and goes
I'm hoping that I値l catch you in the throws
Of one last look at joy that we致e become

But there痴 no easy answer, none to blame or forgive
We were two cripples dancing
To the bitter end we live
I知 not with you, but of you
I知 not with you but of you

O, God, I loved you
And all the past we once knew
Some other love becomes you
Whatever else it comes to
I know we could be so happy, baby
If we wanted to be

We had a birthplace in common
We had separate beds and lives

I値l just sit here and glow
Break out the oldest pictures
Hand your ruined letters out to dry
We had a birthplace in common
And separate beds and lives
And lives, and lives
I know that we could be so happy, baby
If we wanted to be
I know that we could be so happy, baby


Thats the best i can make of it, feel free to improve it or anything. I would
have liked to hear the finished version of this song instead of the rough one
on "My Sweetheart The Drunk" but what can you do.
Comments