Jeff Buckley - So Real Chords & Tabs

 

So Real Chords & Tabs

Jeff Buckley Chords & Tabs

Version: 1 Type: Tab 0 ratings
1 star 2 stars 3 stars 4 stars 5 stars
comments

So Real Tab

"SO REAL" (J. Buckley- M. Tighe)
Preformed by: Jeff Buckley on the album called "Grace"

Tab by Orjan, at orjano59@hotmail.com 

Intro

 ---------------------------------------|----
 --9s13--13--13-------------------------|----
 -10s14--14--14---14--14-------------14-|----
 --0s-0---0---0---15--15---14---12---12-|-12- play 15 times with p.m
 ------------------0---0---12---12---12-|-13-
 ---------------------------------------|----

-------------------------------|---------------------------------------
-------------------------------|---------------------------------------
------------12--------------14-|---------------------------------------
12--12--12--12--12--12--12--12-|-12--12--12--12------------------------
12--12--12--12--12--12--12--12-|-12--12--12--12--12-----------12-------
-------------------------------|-------------13--13--12h13-13-13--13-13



Verse:
 ---------------------------------|---------------------------------
 -----11--11--11--11--11--11--11--|-12--12--12--12--12--12--12--12--
 ------9---9---9---9---9---9---9--|--9---9---9---9---9---9---9---9--
 ------9---9---9---9---9---9---9--|--9---9---9---9---9---9---9---9--
 ---------------------------------|---------------------------------
 --0------------------------------|---------------------------------

Sometimes when he starts the verse, like the spoken part the don't just start
with the singel E, he start with this

---
11-
-9-
-9-
-8-
-x-
-0- 

[ Tab from: http://www.guitartabs.cc/tabs/j/jeff_buckley/so_real_tab.html ]
This is the cool part
                                          (play this for a while
( This has waltz ryhtm  )      (rapidly)  then go to the verse again)
 -------------|---------|-3-3--8-8-8-8-8--7-7-
 ----12-12-12-|---7-7-7-|-3-3--8-8-8-8-8--7-7-
 ----11-11-11-|---6-6-6-|-0-0--0-0-0-0-0--0-0-
 -----9--9--9-|---4-4-4-|-0-0-----------------
 -------------|---------|---------------------
 -10----------|-5-------|---------------------


Chorus:
------------------------|0-0-0-0-0-0-0-0-
10-10-10-10-10-10-10-10-|5-5-5-5-5-5-5-5-
-9--9--9--9--9--9--9--9-|5-5-5-5-5-5-5-5-
-7--7--7--7--7--7--7--7-|4-4-4-4-4-4-4-4-
-X--x--x--x--x--x--x--x-|0-0-0-0-0-0-0-0-
-8--8--8--8--8--8--8--8-|5-5-5-5-5-5-5-5-


Distorted part:
just play some noise with lots of feedback and 1 gitar plays this with plenty
of fuzz

-0----
-0----
-7B*--
-0----
-0----
-0----
-0----

B* means beand up and down-

The final part:

I don't write the rythm, but you'll hear it your self
fig 1
----------------|----------|---
----------3---7-|------8-7-|--3
----------2---6-|--7-9-7-7-|--3
----------0---0-|--0-0-0-0-|--2
-0-2-4----0---0-|--0-0-0-0-|--0
-------3--3---7-|--7-7-7-7-|--3
 * * * *
fig 2
----------------|----------|--------
----------3---7-|------8-7-|--3-5-3
----------2---6-|--7-9-7-7-|--3-5-3
----------0---0-|--0-0-0-0-|--2-4-2
-0-2-4----0---0-|--0-0-0-0-|--0-0-0
-------3--3---7-|--7-7-7-7-|--3-5-3
 * * * *

* play this very hard 

first play fig 1 then to and so on......

end with

-2-
-2-
-3-
-x-Let ring 
-4-
---
Comments