Jeff Buckley - Opened Once Chords & Tabs

 

Opened Once Chords & Tabs

Jeff Buckley Chords & Tabs

Version: 1 Type: Tab 0 ratings
1 star 2 stars 3 stars 4 stars 5 stars
comments

Opened Once Tab

   
Song: Opened Once
Artist:Jeff Buckley
Album: Sketches
Tuning: Standard (Eadgbe)

Gtr 1: electric, neck humbucker

/: slide
h: hammer-on
.: let ring

INTRO X 1

e-------------------------------------------------------|
B-------------------------------------------------------|
G----9---9-9-9-9-9---------0----------------------------|
D--10-9--9-9-9-9-9------9-------------------------------|
A-8-------------------10-10.---7-----5-7-7--7-----7---5-|
E--------------------8-------8----8-7--5-5--5---8---8-7-|

VERSE
e-------------------------------------------------------|
B-------------------------------------------------------|
G----9---9-9-9-9-9---------0----------------------------|
D--10-9--9-9-9-9-9------9-------------------------------|
A-8-------------------10-10.---7----5-7-7--7-----7----5-|
E--------------------8-------8----8-7--5-5--5---8---8-7-|

e-------------------------------------------------------|
B-------------------------------------------------------|
G----9---9-9-9-9-9---------0----------------------------|
D--10-9--9-9-9-9-9------9-------------------------------|
A-8-------------------10-10.---7----5-7-7--7-----7----5-|
E--------------------8-------8----8-7--5-5--5---8---8-7-|


CHORUS
e----------------------------------------------|
B----------------------------------------------|
G------9-9-9-9--------8-8-8----9-9-9-----9-9-9-|
D----9-9-9-9-9----8-8-8-8-8--9-9-9-9---9-9-9-9-|
A---7.---------5/6.---------7.--------9.-------|
E--9-------------------------------------------|

e--------------------------------------------------------------|
B--------------------------------------------------------------|
G------9-9-9-9--------8-8-8----9-9-9-----9-9-9-----------------|
D----9-9-9-9-9----8-8-8-8-8--9-9-9-9---9-9-9-9--9-7-6----------|
A---7.---------5/6.---------7.--------7.-------------5-5h7-----|
E--9--------------------------------------------------------9--|
[ Tab from: http://www.guitartabs.cc/tabs/j/jeff_buckley/opened_once_tab.html ]
VERSE 2
e-------------------------------------------------------|
B-------------------------------------------------------|
G----9---9-9-9-9-9--------------------------------------|
D--10-9--9-9-9-9-9------9-------------------------------|
A-8-------------------10-10---7----5-7-7--7-----7----5--|
E--------------------8------8---8-7--5-5--5---8---8-7---|

e-----------------------------------------------|
B--------------------------3-3-3-3------9-9-9-9-|
G----9---9-9-9-9-9-----6-4-4-4-4-4---9--9-9-9-9-|
D--10-9--9-9-9-9-9----7-------------7-9---------|
A-8------------------5-------------7------------|
E-----------------------------------------------|

CHORUS 2 X2

e-------------------------------------------------|
B-------------------------------------------------|
G------9-9-9-9--------8-8-8----9-9-9--------------|
D----9-9-9-9-9----8-8-8-8-8--9-9-9-9--9-7-6-------|
A---7----------5/6----------7---------------5-5h7-|
E--9----------------------------------------------|

e-------------------------------------------------|
B-------------------------------------------------|
G------9-9-9-9--------8-8-8----9-9-9--------------|
D----9-9-9-9-9----8-8-8-8-8--9-9-9-9--9-7-6-------|
A---7----------5/6----------7---------------5-5h7-|
E--9----------------------------------------------|

e-------------------------------------------------|
B-------------------------------------------------|
G------9-9-9-9--------8-8-8----9-9-9--------------|
D----9-9-9-9-9----8-8-8-8-8--9-9-9-9--9-7-6-------|
A---7----------5/6----------7---------------5-5h7-|

E--9-----------------------------------------------|
e--------------------------------------------------|
B--------------------------------------------------|
G------9-9-9-9--------8-8-8---11-9-9-9-9-9---------|
D----9-9-9-9-9----8-8-8-8-8--------9-9-9-9---------|
A---7----------5/6----------7----------------------|
E--9-----------------------------------------------|

e----------------5-5---------|
B----------------5-5---------|
G------9--9------6-6---------|
D----9-9--9--9---7-7---------|
A---7----7---9---7-7---------|
E--9----9----7---5-5---------|

END
e---------------------|
B---------------------|
G----9--9-9-9---------|
D--10-9-9-9-9---------|
A-8-------------------|
E------------------1.-|

Enjoy! For corrections or comments and maybe requests please e-mail me at bof_mu@caramail.com
Comments