Jeff Buckley - Hallelujah Chords & Tabs

 

Jeff Buckley Chords & Tabs

Version: 3 Type: Tab 0 ratings
1 star 2 stars 3 stars 4 stars 5 stars
comments

Hallelujah Tab

   
By Rob S

READ THIS OTHERWISE YOU'LL BE CONFUSED!!!!! This is my own version cos when i got the
music for it, it was to complicated. Now you might think that this is complicated with
all the chords BUT if you look and learn them they are EASY!

(All Quavers (Arrpegios))

Cx       E--------0--------0-------------------------------------|
         B-------1-1------1--------------------------------------|
         G-----0----0----0---------------------------------------|
         D-------------------------------------------------------|
         A---3---------3------3--2-------------------------------|
         E-------------------------------------------------------|

C       E-------0------------------------------------------------|
        B------1-1-----------------------------------------------|
        G-----0---0----------------------------------------------|
        D--------------------------------------------------------|
        A---3----------------------------------------------------|
        E--------------------------------------------------------|

Amx     E-------0------0-----------------------------------------|
        B------1-1----1------------------------------------------|
        G-----2---2--2-------------------------------------------|
        D--------------------------------------------------------|
        A---0------0-----0--2------------------------------------|
        E--------------------------------------------------------|

Am      E-------0------------------------------------------------|
        B------1-1-----------------------------------------------|
        G-----2---2----------------------------------------------|
        D--------------------------------------------------------|
        A---0----------------------------------------------------|
        E--------------------------------------------------------|

Fx      E--------------------------------------------------------|
        B-----1--------------------------------------------------|
        G----2---------------------------------------------------|
        D---3----------------------------------------------------|
        A--------------------------------------------------------|
        E--------------------------------------------------------|
[ Tab from: http://www.guitartabs.cc/tabs/j/jeff_buckley/hallelujah_tab_ver_3.html ]
F       E------0--------------------------------------------------|
        B-----1-1-------------------------------------------------|
        G----2---2------------------------------------------------|
        D---3-----------------------------------------------------|
        A---------------------------------------------------------|
        E---------------------------------------------------------|

Gx     E---------------------------------------------------------|
       B------0--------------------------------------------------|
       G-----0---------------------------------------------------|
       D---------------------------------------------------------|
       A---------------------------------------------------------|
       E---3-----------------------------------------------------|

G      E-------3-------------------------------------------------|
       B------0-0------------------------------------------------|
       G-----0---0-----------------------------------------------|
       D---------------------------------------------------------|
       A---------------------------------------------------------|
       E---3-----------------------------------------------------|

E7     E-------0-------------------------------------------------|
       B------3-3------------------------------------------------|
       G-----1---1-----------------------------------------------|
       D---------------------------------------------------------|
       A---------------------------------------------------------|
       E---0-----------------------------------------------------|

Also rep =repeated

ACTUAL MUSIC

Intr Cmajx Aminx rep

       C                Am
Well I heard there was a secret chord

      C                 Am
That David played and it pleased the Lord

     F                G              C      G
But you don't really care for music do ya

        C                  Fx         Gx
Well it goes like this the fourth the fifth

    Am                  F
The minor fall and the major lift

    G               E7          Am     Am
the baffled king composing Hallelujah

Chorus

     F    F       Am    Am       F     F       C    G     C
Hallelujah   Hallelujah   Hallelujah    Halleluuuuuuuuuujah

Am with G on top E string     C        A with G on top E string


Carry on with same chords and pattern through whole of the song.
Please do comment on my tab cos i want to know how good it was.
kk c ya.
Comments