Jeff Buckley - Dream Brother Chords & Tabs

 

Dream Brother Chords & Tabs

Jeff Buckley Chords & Tabs

Version: 2 Type: Tab 0 ratings
1 star 2 stars 3 stars 4 stars 5 stars
comments

Dream Brother Tab

I've played the other versions of dream brother on this site and I think the basics are 
but I think the intro goes more like this.  Not meaning to take any credit from the 
tabs. (Apologies if I'm way off the mark, this is my first go at a tab).

Tuning: Standard.

No capo.
[ Tab from: http://www.guitartabs.cc/tabs/j/jeff_buckley/dream_brother_tab_ver_2.html ]
e----------------------------------------------------------|
b--4-----4----3------3----3-----1-------1----0---1---3-----|
g-----0----------0-----------0------0----------------------| x 2
d----------------------------------------------------------|
a----------------------------------------------------------|
e----------------------------------------------------------|

e--3------3-------3----------------------------------------|
b-----4-------3-------3---------1-------1----0---1----3----|   however
g---------------------------0-------0----------------------| x many
d----------------------------------------------------------|   you
a----------------------------------------------------------|   think
e----------------------------------------------------------|

Sort of swap between these two and play around with the plucking in a way you feel 
right.  The rest of the song is right in the other tabs I believe.
Comments