Jedi Mind Tricks - Saviorself Chords & Tabs

 

Saviorself Chords & Tabs

Jedi Mind Tricks Chords & Tabs

Version: 2 Type: Tab 0 ratings
1 star 2 stars 3 stars 4 stars 5 stars
comments

Saviorself Tab

   
-------------------------------------------------------------------------------
                                                Saviorself-Jedi Mind Tricks
-------------------------------------------------------------------------------
Tabbed by: Mitch Rushton 
Email: mitchr911@gmail.com

Tuning:Standard (EADGBe low to high)

Jedi Mind Tricks are not an unsigned band. Here's a link to their official website 
http://www.jmthiphop.com/ 

This is my interpretation of the sample used in the song. Just for shiggles.


Chords played throughout are:

e|---2-----1---------4-------|
B|---4-----2----4----4-------|
G|---3-----3----4----4-------| (notes in parentheses are optional)
D|--(1)---(3)---6------------|
A|--------(1)--(6)-----------|
E|-------------(4)-----------|


Main riff:

e|-------------------------------------------|
B|--4--6--6h7--6--4--2-2h4-------------------|
G|--------------------------3-3~------3-3----|
D|-------------------------------------------|
A|-------------------------------------------|
E|-------------------------------------------|

Once in a while this is played instead of the main riff: 
[ Tab from: http://www.guitartabs.cc/tabs/j/jedi_mind_tricks/saviorself_tab_ver_2.html ]
e|--------------------------------------------------|
B|--------------------------------------------------|
G|--4-4--3-3--1-1---------------------------3-3-----|
D|-----------------4-4--3--4-4----------------------|
A|------------------------------4-2--2-4~-----------|
E|--------------------------------------------------|


This is the really high part at 0:11.

e|--11h13--16-16-16--14-13-11--11h13-14-13-11------|
B|-------------------------------------------------|
G|-------------------------------------------------|
D|-------------------------------------------------|
A|-------------------------------------------------|
E|-------------------------------------------------|

and thats it! 
any questions, comments, constructive/non-constructive criticism 
feel free to shoot me an email or use the comment section below
keep it real and thanks for listening to quality hip-hop.

QED


************************************

| /   slide up
| \   slide down
| h   hammer-on
| p   pull-off
| ~   vibrato
| +   harmonic
| x   Mute note
| b   Bend
| pb  Pre-bend
| br  Bend release
| pbr Pre-bend release
| brb Bend release bend

************************************
Comments