Jebediah - Puck Defender Chords & Tabs

 

Puck Defender Chords & Tabs

Jebediah Chords & Tabs

Version: 1 Type: Bass Tab 0 ratings
1 star 2 stars 3 stars 4 stars 5 stars
comments

Puck Defender Bass Tab

Puck Defender - Jebediah
Tabbed by Michael Fletcher  mikefletch1@ozemail.com.au

Intro		(x4)

G----------------------------------------------------------------
D----------------------------------------------------------------
A----------------5>4>5>4>------------------------4-5-------------
E-5-0-5-0-5-0-5----------7-5------0-5-0-5-0-5-7-----------------

Pre - Verse 1	(x3)

G----------------------------------------------------------------
D---------------------------------------4-5-4-5-7-7-7-7-5--------
A-----------------4-4-4-4-4-5-4-5-5-5-5-------------------7------
E-5-5-5-5-5-5-5-5------------------------------------------------

			(on 4th time)
G----------------------------------------------------------------
D----------------------------------------------------------------
A-----------------4-4-4-4-4-5-4-5--------------------------------
E-5-5-5-5-5-5-5-5------------------------------------------------

Pre - Verse 2	(x2 then..............this part)
[ Tab from: http://www.guitartabs.cc/tabs/j/jebediah/puck_defender_btab.html ]
G--------------------------[-------][----------------------------
D--------------------------[-------][--7-5-4---------------------
A-----------------5-5-5-5--[7-7-7-7][----------------------------
E-5-5-5-5-7-7-7-7----------[-------][----------------------------

Verse					(on 2nd and 4th times)

G----------------[------][---------------------------------------
D---------------4[----9-][----4-5-7------------------------------
A----4----9-5-5--[7-7---][--5------------------------------------
E-5-5--7-7-------[------][---------------------------------------

Pre - Chorus	(x2)

G------------------------------------------------------------7---
D-----------------------------------------------------------7-7--
A--------5-4-4-4-4-----------5-4-------------4-4-4-4-5-5-5-5-----
E--7-7-7-----------5-5-5-5-5-----5---7-7-7-7---------------------

G------7---------------7-----------------------------------------
D-----7-7-----4-4-----7-7---7-7-7-7-7-7-7------------------------
A-5-5-----5-5-----5-5-----5--------------------------------------
E----------------------------------------------------------------

Phew! Well, I'm pretty sure that's it, it might be awkward in some parts cos I did it from memory, anyway, enjoy

Comments