Jebediah - Please Leave Chords & Tabs

 

Please Leave Chords & Tabs

Jebediah Chords & Tabs

Version: 1 Type: Tab 0 ratings
1 star 2 stars 3 stars 4 stars 5 stars
comments

Please Leave Tab

hi this is my first tab that is not blink 182

band: jebediah
song: please leave

KEY:
h= hammer on
p= pull off
\= slide down

INTRO
e]------------------------------------------------------------------[
B]-7-7-5-5-7-5-7--8-8-7-7h8p7-5-7-----------------------------------[
G]------------------------------------------------------------------[(4)times
D]------------------------------------------------------------------[
A]------------------------------------------------------------------[
E]------------------------------------------------------------------[

VERSE #1                            THEN
e]------------------[           e]-------------------[
B]-4-2-4-5-4-2-4----[           B]-4-2---5-4-2-4-----[
G]--------------4---[(4)TIMES   G]-----4---------4---[(1) TIME
D]------------------[           D]-------------------[
A]------------------[           A]-------------------[
E]------------------[           E]-------------------[

e]------------------------------------------------------------------[
B]------------------------------------------------------------------[
G]------------------------------------------------------------------[
D]------------------------------------------------------------------[
A]-9\6--2-2-2---9\6--6-6-6----------------------------------------[
E]-7\4--0-0-0---7\4--4-4-4----------------------------------------[

LYRICS BEGIN AFTER 4 TIMES:
"THOSE THINGS....."
[ Tab from: http://www.guitartabs.cc/tabs/j/jebediah/please_leave_tab.html ]
CHORUS #1
e]------------------------------------------------------------------[
B]------------------------------------------------------------------[
G]------------------------------------------------------------------[
D]------------------------------------------------------------------[
A]-4-4--2-2--6-6-6-6------------------------------------------------[
E]-2-2--0-0--4-4-4-4------------------------------------------------[

"YOU DIDN'T WANT....."



VERSE #2                              e]------------------------------------------------------------------[
B]------------------------------------------------------------------[
G]------------------------------------------------------------------[
D]------------------------------------------------------------------[
A]-9\6--2-2-2--9\6--6-6-6-------------------------------------------[
E]-7\4--0-0-0--7\4--4-4-4-------------------------------------------[

"SCREW UP YOUR LIFE AGIAN....."- (3) TIMES

THAT'S ALL IT MIGHT NOT SOUND THE SAME CUZ THERE IS 2 GUITARS AND IF YOU WONT (I DO THIS SOME TIMES)

e]------------------------------------------------------------------[
B]------------------------------------------------------------------[
G]------------------------------------------------------------------[
D]------------------------------------------------------------------[
A]-9-9\6-6--2-2-2-2--9-9\6-6-6-6------------------------------------[
E]-7-7\6-6--0-0-0-0--7-7\4-4-4-4------------------------------------[

THAT'S IT FOR ME HOPE THIS HELP'S U  IF ANY PROB'S JUST E-MAIL ME LUKEPOWER@HOTMAIL.COM
 

Comments