Jebediah - Ndc Chords & Tabs

 

Ndc Chords & Tabs

Jebediah Chords & Tabs

Version: 1 Type: Bass Tab 0 ratings
1 star 2 stars 3 stars 4 stars 5 stars
comments

Ndc Bass Tab

   
Jebediah - N.D.C.

Tabbed by Stephen Pang (piequat@hotmail.com)

*Dropped D Tuning*

Intro
G|-----------------|-----------------|
D|-----------------|-----------------|
A|-5-5-5-5-5-5-5-5-|-0-0-0-0-0-0-2-4-|
D|-----------------|-----------------|

Verse/"N.D.C"
G|---------------------|
D|-----------4-----5---|
A|-5-5-5---5---5-5-----|
D|---------------------|

G|-------------------|
D|-------------------|
A|-0-0-0-0-4h5-7-5-4-|
D|-------------------|
[ Tab from: http://www.guitartabs.cc/tabs/j/jebediah/ndc_btab.html ]
G|-----------------|
D|-----------------|
A|-0-0-0-0-0-0-0-0-|
D|-----------------|

Bridge
G|-----------------------|
D|-----------------------|
A|--------------------5--|
D|-7--7-5--0-4-0-4-0-----|

G|-----------------------|
D|-----------------------|
A|-----------------------|
D|-7--7-5--0-4-0-4-0--5--|

G|-----------------|-----------------|
D|-----------------|-----------------|
A|-----------------|-------------0-2-|
D|-5-5-5-5-5-5-5-5-|-5-5-5-5-5-5-----|

Outro
G|--------------|-----------------|
D|--------------|-----------------|
A|-5-5-5--2--2--|-----------------|
D|--------------|-0h4--4--4-5--5--|
Comments