Jebediah - More Alone Chords & Tabs

 

More Alone Chords & Tabs

Jebediah Chords & Tabs

Version: 1 Type: Tab 0 ratings
1 star 2 stars 3 stars 4 stars 5 stars
comments

More Alone Tab

   
Author/Artist: Jebediah
Title: More Alone
Album: Braxton Hicks
Transcribed by: Dylan Benton
Email: dylanbenton@gmail.com

Standard Tuning
EADGBe

Parts Of This Might Be a Bit Off
If Anyone Can Tab The Lead Guitar Could THey Please Send Email Me?
Cheers

Intro x2 (OverDriven And Palm muted)
(Recording Has a Phaser On It, But Live It's Just Palm Muted)
Play The Open A5 on the second time

 E  A5  C#5 F#5  A5 F#5   A5
-0----------------------|-----------------------------------------------------|
-0----------------------|-----------------------------------------------------|
-1-------6--------------|-2---------------------------------------------------|
-2---7---6---4---7---4--|-2---------------------------------------------------|
-2---7---4---4---7---4--|-0---------------------------------------------------|
-0---5-------2---5---2--|-----------------------------------------------------|


Verse (Clean Guitar) X1
[ Tab from: http://www.guitartabs.cc/tabs/j/jebediah/more_alone_tab.html ]
 E  A5  C#5 F#5  A5 F#5  A5
-0---------------------------------------------------------------------------|
-0---------------------------------------------------------------------------|
-1-------6---------------2---------------------------------------------------|
-2---7---6---4---7---4---2---------------------------------------------------|
-2---7---4---4---7---4---0---------------------------------------------------|
-0---5-------2---5---2-------------------------------------------------------|

Chorus x2 (OverDriven Guitar)
------------|-----------------------------------------------------------------|
------------|-----------------------------------------------------------------|
-1---4------|-----------------------------------------------------------------|
-2---4---4--|-----------------------------------------------------------------|
-2---2---4--|-----------------------------------------------------------------|
-0-------2--|-----------------------------------------------------------------|

Bridge (Clean)

"Im Done With..."     "You do, Think of me"
---------------------|--0-----------------------------------------------------|
---------------------|--0-----------------------------------------------------|
-----6---------------|--1-----------------------------------------------------|
-7---6---4---7---4-x2|--2---7---4---7---4-------------------------------------|
-7---4---4---7---4---|--2---7---4---7---4-------------------------------------|
-5-------2---5---2---|--0---5---2---5---2-------------------------------------|
                        *   *   *   *   *    ( * = Crank The Distortion )

Finish In The "oohhhhh....oohhhhh" Part Alternating Between E and F#5
Comments