Jebediah - Leaving Home Chords & Tabs

 

Leaving Home Chords & Tabs

Jebediah Chords & Tabs

Version: 1 Type: Tab 0 ratings
1 star 2 stars 3 stars 4 stars 5 stars
comments

Leaving Home Tab

#----------------------------------PLEASE NOTE--------------------------------#
#This file is the author's own work and represents their interpretation of the#
#song. You may only use this file for private study, scholarship, or research.#
#-----------------------------------------------------------------------------#
#-- File created with Instab - http://www.pconline.com/~smcarey/instab.html --#
#-----------------------------------------------------------------------------#

Author/Artist: Jebediah
Title: Leaving Home
Album: Slightly Oddway
Transcribed by: Vinnie
Email: juggalovinnie@woodstock.com

This is one of Jeb's best. It is really easy to play.
There is a lack of Aussie bands on this site so look
out for more Jeb's song and other rockin' Aussie
groups. Frenzal Rhomb, Powderfinger and
Something For Kate coming soon. Enjoy!
[ Tab from: http://www.guitartabs.cc/tabs/j/jebediah/leaving_home_tab.html ]
-------------------|------------------------------|---------------------------
-------------------|------------------------------|---------------------------
----4-6---8---4----|----4------4------4-----------|---------------------------
--4-4-6-8-8-6-4-4--|--6-4-4--6-4-4--6-4-4--6-9-7--|---------------------------
--4-2-4-8-6-6-2-4--|--6-2-4--6-2-4--6-2-4--6-9-7--|---------------------------
--2-----6---4---2--|--4---2--4---2--4---2--4-7-5--|---------------------------
 Verse              Bridge                   ^Distortion on Here              

-----------------------------------|--------------------|---------------------
-----------------------------------|--------------------|---------------------
----4---8---4---8---4---8----------|--4--6--3--8--6--4--|---------------------
--4-4-8-8-4-4-8-8-4-4-8-8-8-9-7-4--|--4--6--3--8--6--4--|---------------------
--4-2-8-6-4-2-8-6-4-2-8-6-8-9-7-4--|--2--4--1--6--4--2--|---------------------
--2---6---2---6---2---6---6-7-5-2--|--------------------|---------------------
 Chorus                             Slow Bit                                  

Comments