Jebediah - Leaving Home Chords & Tabs

 

Leaving Home Chords & Tabs

Jebediah Chords & Tabs

Version: 1 Type: Bass Tab 0 ratings
1 star 2 stars 3 stars 4 stars 5 stars
comments

Leaving Home Bass Tab

Band Name: Jebediah
Song Title: Leaving Home
Album: Slightly Oddway
Tabbed by: Clarko

~~~~~~~~~~~~~~~~~~~~Verse~~~~~~~~~~~~~~~~~~~~~ 

G |---------------------------------| (x2)
D |---------------------------------|
A |------2-2-4-2-1-4-6-6-----2-2----|
E |-2-2------------------4-4-----2--|

G |------------------| (x3)
D |------------------|
A |-----------2-2----|
E |-4-4-4-4-4-----2--|
[ Tab from: http://www.guitartabs.cc/tabs/j/jebediah/leaving_home_btab.html ]
G |--------------------------|
D |--------------------------|
A |---------2-2-2------------|
E |-4-4-4-4-------0-0-0-0-0--|


~~~~~~~~~~~~~~~~~~~~~Chorus~~~~~~~~~~~~~~~~~~~~~

G |-----------------| (x3)
D |-----------------|
A |-----2-2-1-1-6-6-|
E |-2-2-------------|

G |-------------------|
D |-------------------|
A |-1-1-1-1-2-2-2/5---|
E |-----------------2-|

~~~~~~~~~~~~~~~~~~~~~~~~~~~~~~~~~~~~~~~~~~~~~~~~~
Thats it! hell easy.

Tabbed by: Clarko 
email: bornthatway@hotmail.com 


Comments