Jebediah - La Di Da Da Chords & Tabs

 

La Di Da Da Chords & Tabs

Jebediah Chords & Tabs

Version: 1 Type: Tab 0 ratings
1 star 2 stars 3 stars 4 stars 5 stars
comments

La Di Da Da Tab

   
Jebediah - La Di Da Da

Tabbed By Stephen Pang (piequat@hotmail.com)

G     - 320033 | Em - 022000
Dsus4 - xx0233 | C  - 032010
E/G   - 022033 | Bm - 004432
D     - 000323 |

Intro/Chorus x 4
e|-----------------|-----------------|------------------|-----------------|
B|-----5-----------|-----5-----------|-----3------------|-----------------|
G|---------7-----7-|---------7-----4\|---------5-4---/5-|-----4---2---4---|
D|-5-5---5-----5---|-4-4---4-----4---|-2-2---2-----2--0-|---0---0---0-----|
A|-----------------|-----------------|------------------|-----------------|
E|-----------------|-----------------|------------------|-----------------|
   1 + 2 + 3 + 4 +   1 + 2 + 3 + 4 +   1 + 2 + 3 + 4  +   1 + 2 + 3 + 4 + 

Verse 1
G          Dsus4       E/G         D
 Well I've been outside  and it's not my scene
G      Dsus4         E/G     D
 And I know you don't  know what I mean
G         Dsus4     E/G           D
 But I'm trying hard  cause I've never been
G       Dsus4     E/G     D
 On the other side  of a daydream

Chorus x 2

Verse 2
G         Dsus4      E/G     D
 And I've been around  tried to be kind
G       Dsus4       E/G      D
 But it gets me down  and I often find
G       Dsus4      E/G        D
 People that I meet  in this state of mind
G            Dsus4        E/G   D
 Hanging on to threads  fallen behind

Chorus x 2

Bridge
Em           C             
 Seems I've found
Em             Bm          
 Something to stick around my
 D           C
Neck and be proud
Em        C
 Seems I know
Em                 Bm
 Some things will never go with
 D           C
What you've got on show
 Em
Even so
[ Tab from: http://www.guitartabs.cc/tabs/j/jebediah/la_di_da_da_tab.html ]
Solo
e|------------------|-----------------|-----------------|-----------------|
B|-----5-------5-5/7|---7\5-5\3-1-1/3-|-----3-----3-----|-----------------|
G|---------7--------|-----------------|---4-----4-------|-----------------|
D|-5-5---5----------|-----------------|-4-----4-------4-|-2p0-0h2-2p0-0---|
A|------------------|-----------------|-----------------|-----------------|
E|------------------|-----------------|-----------------|-----------------|
   1 + 2 + 3 + 4 +    1 + 2 + 3 + 4 +   1 + 2 + 3 + 4 +   1 + 2 + 3 + 4 + 

e|------------------|-----------------|-----------------|------------------|
B|-----5-------5-5/7|---7\5-5\3-1-1/3-|-----3-----3-----|------------------|
G|---------7--------|-----------------|---4-----4-------|------------------|
D|-5-5---5----------|-----------------|-4-----4-------4-|-5-5-7-7-9-9-11-11|
A|------------------|-----------------|-----------------|------------------|
E|------------------|-----------------|-----------------|------------------|
   1 + 2 + 3 + 4 +    1 + 2 + 3 + 4 +   1 + 2 + 3 + 4 +   1 + 2 + 3 + 4  + 

e|-------15----14-12-------|-------12----14-------15-|
B|-8--12----12-------12----|----12----12----12-------|
G|-------------------------|-------------------------|
D|-------------------------|-------------------------|
A|-------------------------|-------------------------|
E|-------------------------|-------------------------|
   1  +  2  +  3  +  4  +    1  +  2  +  3  +  4  +   

e|----14-12----------------|-------------------------|
B|----------12-15----------|----15----8--7---9---7---|
G|-------------------------|-------------------------| * the last three *
D|-------------------------|-------------------------| notes are triplets
A|-------------------------|-------------------------|
E|-------------------------|-------------------------|
   1  +  2  +  3  +  4  +    1  +  2  +  3  +  4  + 

e|-------15----14-12-------|-------12----14-------15-|
B|-8--12----12-------12----|----12----12----12-------|
G|-------------------------|-------------------------|
D|-------------------------|-------------------------|
A|-------------------------|-------------------------|
E|-------------------------|-------------------------|
   1  +  2  +  3  +  4  +    1  +  2  +  3  +  4  +   

e|-------15----------15----|-15-------15-------15----|
B|----12----------12----12-|-------12-------12-------|
G|-------------------------|-------------------------|
D|-------------------------|-------------------------|
A|-------------------------|-------------------------|
E|-------------------------|-------------------------|
   1  +  2  +  3  +  4  +    1  +  2  +  3  +  4  +   

e|-------------8--------8--|-------8-----10-8--------|
B|-------------------------|-------------------------|
G|-------------------------|-------------------------|
D|----10-10-10-------10----|----10-------------------|
A|-------------------------|-------------------------|
E|-------------------------|-------------------------|
   1  +  2  +  3  +  4  +    1  +  2  +  3  +  4  +   

Chorus repeated as needed (i like to end with a G chord)
Comments