Jebediah - Jerks Of Attention Chords & Tabs

 

Jerks Of Attention Chords & Tabs

Jebediah Chords & Tabs

Version: 2 Type: Bass Tab 0 ratings
1 star 2 stars 3 stars 4 stars 5 stars
comments

Jerks Of Attention Bass Tab

song/jerks of attention
band/jebediah
by:troygrech@hotmail.com

this is a good song to play but its got a slow tempo

intro
G:-----------------------------------
D:-----------------------------------
A:---------5-5-5-5-0-0-0-0-----------
E:-2-2-2-2-----------------10/17-17/-

verse
G:---------------------------------
D:---------------------------------
A:---------5-5-5-5-0-0-4---4-5-4-0-
E:-2-2-2-2---------------5---------

pre-chorus
G:---------------------------------------
D:---------------------------------------
A:-5-5-5\-------------5-5-5\-------------
E:--------2-2/7-0-0-2--------2-2/7-0-0-2-
[ Tab from: http://www.guitartabs.cc/tabs/j/jebediah/jerks_of_attention_btab_ver_2.html ]
G:----------------------------------------------------
D:----------------------------------------------------
A:-5-5-5-------7-7-9-5-5-5-5--5-5-5-5--5-5-5-5-5-7-7\-
E:-------2-2/7----------------------------------------

chorus (x2)
G:--------------------------------
D:--------------------------------
A:-----0-2-0-0-0-0-5-5-4-5-7-7-5\-
E:-2-2----------------------------

G:------------------------------------
D:------------------------------------
A:-5-5-5-5--5-5-5-5--7-7-7-7--7-7-7/9-
E:------------------------------------

G:---------------------------------------
D:---------------------------------------
A:-5-5-5-5--5-5-5-5--5h7-5h7-5h7-5h7-5h7-
E:---------------------------------------

and thats that
Comments