Jebediah - Harpoon Chords & Tabs

 

Harpoon Chords & Tabs

Jebediah Chords & Tabs

Version: 3 Type: Bass Tab 0 ratings
1 star 2 stars 3 stars 4 stars 5 stars
comments

Harpoon Bass Tab

   
Jebediah - Harpoon

Tabbed By Stephen Pang (piequat@hotmail.com)

Intro
G|--------|-----------------------|---------|
D|--------|-----------------------|---------|
A|--------|-----------------------|---------|
E|-7--4-2-|-0--0-2-2--2-/7--7-7-7-|-0-0--2--|

Verse
G|------------------------------|
D|------------------------------|
A|-----9------------------7-6---|
E|-7-7----2-2--2-0--0--0------9-|

Chorus
G|----------------------------------|-----------------|----|
D|----------------------------------|-----------------|----|
A|-------4-7-7-6-4-----9------------|-------4-7-7-6-4-|----|
E|-4-4-7-----------7-7----9-9-7h9-7-|-4-4-7-----------|-7--|

After Chorus
G|-----------------| |-------|    |--------|    |--------|
D|-----------------| |-------|    |--------|    |--------|
A|-----------------| |-7--6--| or |-6-6-7--| or |-7-7-7--|
E|-0--0-2-2--2-/7--| |-------|    |--------|    |--------|

G|---------| |-----------------|---------|
D|---------| |-----------------|---------|
A|---------| |---------/12-12--|---------|
E|-0-0--2--| |-7-7--5----------|-7-7--5--|

Bridge
G|--------------------------------------------|
D|--------------------------------------------|
A|-------4-7-7-6-4-----11----11----11---------|
E|-4-4-7-----------9-9-----9-----9-----9-9-9--|
[ Tab from: http://www.guitartabs.cc/tabs/j/jebediah/harpoon_btab_ver_3.html ]
G|---------------------------------|
D|---------------------------------|
A|---------------------------------|
E|-7-7-7-7-0-0-0-0-2-2-2-2-2-2-2-2-|

G|--------------------------------------------|
D|--------------------------------------------|
A|-------4-7-7-6-4-----11----11----11---------|
E|-4-4-7-----------9-9-----9-----9-----9-9-9--|

G|---------------------------------|
D|---------------------------------|
A|---------------------------------|
E|-7-7-7-7-0-0-0-0-2-2-2-2-0-0-0-0-|

G|---------------------------------|
D|---------------------8---------9-|
A|---------7-7-7-7-9-9---9-7-7-9---| x2
E|-7-7-7-7-------------------------|

G|---------------------------------|
D|---------------------8---8-------|
A|---------7-7-7-7-9-9---9---9-9-9-|
E|-7-7-7-7-------------------------|

G|-------------------|
D|-11---11-9-8-9-8---|
A|----9--------------|
E|-------------------|

Last Verse
G|---------------| |------------|      |----------|
D|---------------| |------------|      |----------|
A|-----9---------| |-7--4-4-7-4-| then |/7--9--7--|
E|-7-7----2-2--0-| |------------|      |----------|

      |--------------|      |------------|
      |--------------|      |------------|
 then |/7--6-4-4-7-6-| then |/6-7--9--7--|
      |--------------|      |------------|
Comments