Jebediah - Harpoon Chords & Tabs

 

Harpoon Chords & Tabs

Jebediah Chords & Tabs

Version: 1 Type: Bass Tab 0 ratings
1 star 2 stars 3 stars 4 stars 5 stars
comments

Harpoon Bass Tab

SONG/HARPOON
BAND/JEBEDIAH
troygrech@hotmail.com

INTRO
G:-----------------------
D:-----------------------
A:-----------------------
E:7---0h2---2/77---00-2/-

VERSE
G:-------------------|------------------
D:----------------22-|--------------224-
A:------------------4|------------------
E:77/14--22--000-----|77/14--22--000----

CHORUS
G:------------|---------------------
D:------------|---------------------
A:--77h9--44p2|--77h9--77h9--77h9---
E:44----77----|44----44----44----7/-
[ Tab from: http://www.guitartabs.cc/tabs/j/jebediah/harpoon_btab.html ]
middle bit
G:----------------------------------------------|----*3-|----
D:----------------------------------------------|-------|----
A:----------------------------------------------|----14-|----
E:0--0h2--2/77--0--0h2--2/77--0--0h2--2/77--002-|775/---|775-

bridge
G:-----------------
D:-----------------
A:----444422-------
E:4400------002222-

G:---------------------------------------------------
D:-----------------1---------1---------1-------------
A:----444422------2-2---1---2-2---1---2-2----1-4p21--
E:4400------002200---002-200---002-200---0022-2----2-

Comments