Jebediah - Feet Touch The Ground Chords & Tabs

 

Feet Touch The Ground Chords & Tabs

Jebediah Chords & Tabs

Version: 2 Type: Bass Tab 0 ratings
1 star 2 stars 3 stars 4 stars 5 stars
comments

Feet Touch The Ground Bass Tab

   
Feet touch the ground
by Jebediah
tabbed by Brendan Allard

Intro/verse

G:----------------------------------------------------------------
D:----------------------------------------------------------------
A:-4-4-4-4-4-4-4-4-4-4-4-4-4-4-4-4-2-2-2-2-2-2-2-2-2-2-2-2-2-2-2-2 x6
E:----------------------------------------------------------------

Chorus (with distortion)
[ Tab from: http://www.guitartabs.cc/tabs/j/jebediah/feet_touch_the_ground_btab_ver_2.html ]
G:----------------------------------------------------------------
D:----------------------------------------------------------------
A:-4-4-4-4-4-4-4-4-4-4-4-4-4-4-4-4-2-2-2-2-2-2-2-2-2-2-2-2-2-2-2-2 x2
E:----------------------------------------------------------------

Bridge

G:----------------------------------------------------------------
D:----------------------------------------------------------------
A:-7-7-7-7-7-7-7-7-7-7-7-7-7-7-7-7---4-4-4---2-2-2---4-4-4---6-6-6
E:----------------------------------------------------------------

Ending

G:--------------------------------------------------
D:--------------------------------------------------
A:-4---4---4-4---4-4---4-4-4---6-6---2-2-(let ring)-
E:--------------------------------------------------
Comments