Jebediah - Fall Down Chords & Tabs

 

Fall Down Chords & Tabs

Jebediah Chords & Tabs

Version: 1 Type: Tab 0 ratings
1 star 2 stars 3 stars 4 stars 5 stars
comments

Fall Down Tab

Song: Fall Down
Artist: Jebediah
Tuning: Standard
Tabbed by: Ben

Riff 1: (bagpipes arranged for guitar)

E|------------------------------|
B|------------------------------|
G|--8h9p8-4-6--8h9p8-4-6-4-6-4--|
D|------------------------------|
A|------------------------------|
E|------------------------------|

Riff 2: (bagpipes arranged for guitar)

E|------------------------------------|
B|------------------------------------|
G|--8h9p8-4-6-4-6-4—8h9p8-4-6-4-6-4--|
D|------------------------------------|
A|------------------------------------|
E|------------------------------------|

Riff 3:

E|--------------------------------------|
B|--------------------------------------|
G|--8-8----8-8----8-8--8-8--8-88888888--|
D|--9-9----9-9----9-9--9-9--9-99999999--|
A|--9-9----9-9----9-9--9-9--9-99999999--|
E|--7-7----7-7----7-7--7-7--7-77777777--|

Riff 4:

E|-------------------------------|
B|-------------------------------|
G|--8-8-88-9-9-99-8-8-88-6-6-66--|
D|--9-9-99-9-9-99-8-8-88-6-6-66--|
A|--9-9-99-7-7-77-6-6-66-4-4-44--|
E|--7-7-77-----------------------|

Riff 5:
[ Tab from: http://www.guitartabs.cc/tabs/j/jebediah/fall_down_tab.html ]
E|---------------------------|
B|---------------------------|
G|--8-8-8-9-9-9-8-8-8-9-9-9--|
D|--9-9-9-9-9-9-8-8-8-9-9-9--|
A|--9-9-9-7-7-7-6-6-6-7-7-7--|
E|--7-7-7--------------------|

End Strum:

E|-----|
B|-----|
G|--8--|
D|--9--|
A|--9--|
E|--7--|

Song:

Riff 1 x3 (on the second time the guitar comes in with Riff 3)
Riff 2 x1
Riff 4 x4
Verse (no guitar)
Riff 4 x4
Verse (no guitar)
Riff 4 x4
Riff 5 x4
Riff 4 x4
Riff 1 x4 (guitar plays Riff 3 at the same time)
Riff 4 x4
End Strum x1

Lyrics:

Thought police have busted in
And broken up and stolen almost everything
They've a job to do a special mission
To reinstate their point of view
It's in with the old order out with the new

They're the guys that wrote that song
That's been playing on the airwaves all day long
It's a catchy tune hummable melody
And you can't drive it from your brain
It's got a chorus that repeats over and over again

Window, opportunity
I got a message and it comes for free
There's another way that way is real
But you just won't get it till the walls fall down 


Is this tab great or what? To tell me what you think or if you have a question e-mail me at plek_trum@hotmail.com
Comments