Jebediah - Clint Chords & Tabs

 

Clint Chords & Tabs

Jebediah Chords & Tabs

Version: 1 Type: Bass Tab 0 ratings
1 star 2 stars 3 stars 4 stars 5 stars
comments

Clint Bass Tab

   
Jebediah - Clint

Tabbed By Stephen Pang (piequat@hotmail.com)

Intro
G|------|
D|-9/11-|
A|------|
E|------|

G|-----------------|-----------------|-----------------|-----------------|
D|-----------------|-----------------|-----------------|-----------9/11--|
A|-----------------|-----------------|-7-7-7-7-7-7-7-7-|-9-9-9-9-9-------|
E|-9-9-9-9-9-9-9-9-|-9-9-9-9-9-9-9-9-|-----------------|-----------------|

G|-----------------|-----------------|-----------------|-----------------|
D|-----------------|-----------------|-----------------|-----------9/11--|
A|-----------------|-----------------|-7-7-7-6-6-7-7-7-|-9-9-9-9-9-------|
E|-9-9-9-7-7-9-9-9-|-9-9-9-7-7-9-9-9-|-----------------|-----------------|

Verse
G|-----------|-----------|-----------|-----------------------|
D|-----------|-----------|-----------|-------------------14\-|
A|-7--7-9--7-|-7--7-9--7-|-7--7-9--7-|-12-12-12-12-12-12-----|
E|-----------|-----------|-----------|-----------------------|

*variations on last bar*

G|-------------------------|
D|----------------12p11h12-|
A|-12-12-12-12-12----------|
E|-------------------------|
[ Tab from: http://www.guitartabs.cc/tabs/j/jebediah/clint_btab.html ]
G|----------------------|
D|----------------12p11-|
A|-12-12-12-12-12-------|
E|----------------------|

Chorus
G|---------------|------------|-------------|-------------|
D|---------------|------------|-------------|-------------|
A|-4--4-4--------|-4--4-4---4-|-7---7-------|-------------|
E|---------4-4-4-|------------|-------5---5-|-7---7-4---4-|

Chorus End
G|-----------------|-----------------|-----------------|----------------|
D|-----------------|-----------------|-----------------|-----------9/11-|
A|-----------------|-----------------|-7-7-7-6-7-7-7-7-|-9-9-9-9-9------|
E|-9-9-9-7-9-9-9-7-|-9-9-9-7-9-9-9-7-|-----------------|----------------|

Bridge
G|-----------------|-----------------|----------------|--------------|
D|-----------------|-----------------|----------------|--------------|
A|-----------------|-7-7-7-7-9-9-9-9-|----------------|--------7--7--|
E|-9-9-9-9-9-9-9-9-|-----------------|-7-7-7--3--3--3-|-5-5-5--------|

G|-----------------|-----------------|----------------|----------------|
D|-----------------|-----------------|----------------|----------------|
A|-4-4-4-4-4-------|-4-4-4-4-4-4-4-4-|-7-7-7----------|----------------|
E|-----------4-4-4-|-----------------|--------5--5--5-|-7-7-7--3--3--3-|
Comments