Jebediah - Benedict Chords & Tabs

 

Benedict Chords & Tabs

Jebediah Chords & Tabs

Version: 1 Type: Bass Tab 0 ratings
1 star 2 stars 3 stars 4 stars 5 stars
comments

Benedict Bass Tab

SONG/BENEDICT
BAND/JEBEDIAH
BY/troygrech@hotmail.com

INTRO
G:---------------------------------
D:-------------------------45------
A:54----2-54----25-4----255--------
E:--52-4----52-4----52-4-----2---2-

PRE-VERSE
G:-------------------------------
D:-------------------------------
A:----1---2-----54----25-4-------
E:2----------2----52-4----5-2020-
[ Tab from: http://www.guitartabs.cc/tabs/j/jebediah/benedict_btab.html ]
VERSE
G:-----------------------------|-----------------
D:---------------45-----45-----|-----------------
A:----1---2-----5------5-------|54----25-4-------
E:2----------2-----2--2---2020-|--52-4----5-2020-

CHORUS
G:------------|------------------
D:------------|------------------
A:2----5------|------------------
E:----------2-|3-------------/8\-

BRIDGE
G:-------
D:-------
A:-------
E:3----2-

GUITAR SOLO
G:-------------------------|-----------------
D:-------454545/7\---------|-------454545/7\-
A:5-5-5-5------------------|5-5-5-5----------
E:----------------20202020-|-----------------

END
G:---------------------------
D:---------------------------
A:---------------------------
E:3r--4r--5r--6r--7r--8r--9r-

Comments