Jebediah - Animal Chords & Tabs

 

Animal Chords & Tabs

Jebediah Chords & Tabs

Version: 1 Type: Tab 0 ratings
1 star 2 stars 3 stars 4 stars 5 stars
comments

Animal Tab

T1: Michael Gooding, da_sheep_dude@yahoo.com, Jebediah, Animal, 8/99? 

  S1: 
  ---===MAIN RIFF===--- 

  Guitar 1 
  e: -----------------------------------------------------------| 
  b: -----------------------------------------------------------| 
  g: -----11--11-9-------11--11-9-------11--11-9-------11--11-9-| 
  d: -----------------------------------------------------------| 
  a: --9-------------/9-------------/9-------------/9-----------| 
  e: -----------------------------------------------------------| 

  Guitar 2 
  e: -----------------------------------------------------------| 
  b: -----------------------------------------------------------| 
  g: -----------------------------------------------------------| 
  d: --4-4-4-4-------6-6-6-6-------7-7-7-7-------4-4-4-4--------| 
  a: --4-4-4-4-x4----6-6-6-6-x4----7-7-7-7-x4----4-4-4-4-x4-----| 
  e: --2-2-2-2-------4-4-4-4-------5-5-5-5-------2-2-2-2--------| 
[ Tab from: http://www.guitartabs.cc/tabs/j/jebediah/animal_tab.html ]
  e: ------------------------------------------------------------------| 
  b: ------------------------------------------------------------------| 
  g: --11-11-11-11-----13-13-13-13-----14-14-14-14-----11-11-11-11-----| 
  d: --11-11-11-11-x4--13-13-13-13-x4--14-14-14-14-x4--11-11-11-11-x4--| 
  a: ---9--9--9--9-----11-11-11-11-----12-12-12-12------9--9--9--9-----| 
  e: ------------------------------------------------------------------| 


  ---===SOLO===--- 

  e: ------------------------------------------------------------------| 
  b: --------------------10-10-10--9-----------9--12-12-12---10--9-----| 
  g: --------------------------------11p9----9---------------------9---| 
  d: --9-9-9-9--9-9-9-9--------------------9---------------------------| 
  a: ------------------------------------------------------------------| 
  e: ------------------------------------------------------------------| 

  e: ------------------------------------------------------------------| 
  b: ----------10------10--------12-----12-----------------------------| 
  g: -------9--------9----9--------------------------------------------| 
  d: --9-9---------9----------9------9-------9--9/11--let ring---------| 
  a: ------------------------------------------------------------------| 
  e: ------------------------------------------------------------------| 
Comments