Jean Wyclef - 911 Chords & Tabs

 

911 Chords & Tabs

Jean Wyclef Chords & Tabs

Version: 7 Type: Tab 2 ratings
1 star 2 stars 3 stars 4 stars 5 stars
comments

911 Tab

Song: 911

by wyclef jean
[ Tab from: http://www.guitartabs.cc/tabs/j/jean_wyclef/911_tab_ver_7.html ]
[-----------------------------------------------------2-------]
[---------7/12-----10---8---7---8---5---------------3---3-----]
[-------------------------------------------------4------4----]
[-----------------------------------------------4---------4---]
[---------------------------------------------2---------------]
[---0---------------------------------------------------------]


[--------------------------------------------------------------]
[-----7/12-----10--8--7--8--5------------------3---------------]
[---------------------------------------4------4---------------]
[---------------------------------------5----4-----------------]
[--0----------------------------------5----2-------------------]
[-----------------------------------3--------------------------]
Comments