Jean-paul Cambefort - En Partant Du Sol Chords & Tabs

 

En Partant Du Sol Chords & Tabs

Jean-paul Cambefort Chords & Tabs

Version: 1 Type: Tab 0 ratings
1 star 2 stars 3 stars 4 stars 5 stars
comments

En Partant Du Sol Tab

~~~~~~~~~~~~~~~~~~~~~~~~~~~~~~~~~~~~~~~~~~~~~~~~~~~~~~~~~~~~~~~~~~~~~~~~~~~~
               Jean-Paul Cambefort -  En Partant Du Sol
~~~~~~~~~~~~~~~~~~~~~~~~~~~~~~~~~~~~~~~~~~~~~~~~~~~~~~~~~~~~~~~~~~~~~~~~~~~~

Tuning: Standard (EADGBe)
Submitted By: Josh Byrnes

NOTE: This is NOT one of my tabs, I got it from Guitar-Pro. I am submitting it because
it's an awesome song to play.

                                                                  
E||--------------------|-----------3-----2--|--2-----------2-----|
B||--0--------0--------|--3-----------------|-----------3-----3--|
G||--------0-----0-----|--------0-----0-----|--------2-----------|
D||-----0-----------0--|-----0--------------|-----4--------------|
A||--------------------|--2-----------------|--3-----------------|
E||--3-----------------|--------------------|--------------------|


           --1324                                                
--0--------2--------|--3-----------3-----||---5--------5--------|
--------1--------1--|-----------0-----0--||---------3-----3-----|
-----0--------2-----|--------0-----------||*-----5-----------5--|
-----------1--------|-----2--------------||*--------------------|
--3-----------------|--------------------||---5-----------------|
--------------------|--0-----------------||---------------------|


                                                                      
--7--------7--------|-----7-----10---------|--12-------------12------|
--------0-----0-----|--0-----0--8-------8--|--10---------10------10--|
-----7--------------|--7------------10-----|--9-------9--------------|
--5--------------5--|-----------9----------|--10--10-----------------|
--------------------|----------------------|--0----------------------|
--------------7-----|----------------------|-------------------------|


                                                                  
--10--------------10------|--7--------5--------|--3--------------|
--10----------10------10--|--------8--------6--|--------4--------|
--11------11--------------|-----7-----------5--|--------3--------|
--12--12------------------|--9-----------5-----|-----3-----------|
--0-----------------------|--------------------|-----------------|
--------------------------|-----------6--------|--4--------------|


           -2--44      -32-44   ---144---1  21---3           
--0--------3--------|--3--------3-----2--|--3---------------|
--1-----1--------3--|--------3--------3--|--------0---------|
-----0--------0-----|-----0--------2-----|--------0------0--|
--------------------|-----------0--------|-----0------------|
--0--------2--------|--3-----------------|------------------|
--------------------|--------------------|--3---------------|


           -2--44      -32-44   ---144---1                       
--0--------3--------|--3--------3-----2--|--3--------3---------||
--1-----1--------3--|--------3--------3--|--------0-----0------||
-----0--------0-----|-----0--------2-----|-----0-----------0--*||
--------------------|-----------0--------|--------------------*||
--0--------2--------|--3-----------------|---------------------||
--------------------|--------------------|--0------------------||


  21---3                                                    
--3--------------|--------------0-----|--------5--------0--|
--------0--------|--0-----3-----------|--6-----------6-----|
--------0--------|--0-----2--------0--|-----------7--------|
-----0-----------|-----0--------------|-----7--------------|
-----------------|--------------------|--5-----------------|
--3--------------|--3--------3--------|--------------------|


                                                              
--------------0-----|--------5-------0--|--------------0-----|
--0-----3-----------|--6----------------|--0-----3-----------|
--0-----2--------0--|-----------7-------|--0-----2--------0--|
-----0--------------|-----7-------------|-----0--------------|
--------------------|--5----------------|--------------------|
--3--------3--------|-------------------|--3--------3--------|


                                                               
-----------3--------|--------------3-----|--8--------8--------|
--6--------------6--|--5-----6-----------|--9-----9--------9--|
--------3-----3-----|--3-----3--------0--|--7--7--------8-----|
-----3--------------|-----5--------------|--------------------|
--------------------|--3--------3--------|--8-----------------|
--3-----------------|--------------------|--------------------|


              --1324                                              
--5-----6-----8-----|--10--------10--------|--8-----6------------|
--3-----3-----7-----|--8------8---------8--|--6-----6-----9------|
-----5--------8-----|--7---7---------7-----|-----7--------10-----|
-----------------7--|--8-------------------|--6---------------9--|
--5--------0--------|----------------------|-----------8---------|
--------------------|----------------------|---------------------|

[ Tab from: http://www.guitartabs.cc/tabs/j/jean_paul_cambefort/en_partant_du_sol_tab.html ]
                                                               
--3--------3--------|--1-----------------|-----------0--------|
--4-----4--------4--|--3-----4-----3-----|--1-----1--------1--|
--------4-----4-----|--1-----2-----0-----|--0-----0-----0-----|
-----3--------------|-----3-----4-----3--|-----2--------------|
--------------------|--3-----3-----------|--3-----------------|
--3-----------------|--------------3-----|--------------------|


  -2413-      -24121                        -2413-      -24121 
--------0-----2-----|-----------3-----0--|--------0-----2-----|
--3-----3-----3-----|--5-----5-----------|--3-----3-----3-----|
--2--------2-----2--|--4-----4-----0-----|--2--------2-----2--|
-----4--------------|-----5--------------|-----4--------------|
--3-----------------|--3-----------------|--3-----------------|
--------------------|--------------------|--------------------|


                       -2413-      -24121                       
--3--------3-----0--|--------0-----2-----|--------------7--10--|
--5-----5-----------|--3-----3-----3-----|--8--------8---------|
--------4-----0-----|--2--------2-----2--|--------7------------|
-----5--------------|-----4--------------|-----9---------------|
--3-----------------|--3-----------------|---------------------|
--------------------|--------------------|--0------------------|


  --1324  --1324  --1324                                              
--15------12------9-----|--10--------10--------|--8-----7------------|
--14------11------8-----|---------8---------8--|--------------10-----|
------15------12-----9--|------7---------7-----|-----7-----7------7--|
--14------11------8-----|--9-------------------|---------------------|
------------------------|----------------------|--9-----7------------|
------------------------|----------------------|--------------10-----|


                       --1324  --1324  --1324                        
--3--------3--------|--15------12------9-----|--10--------10--------|
--------0--------0--|--14------11------8-----|---------8---------8--|
-----0--------0-----|------15------12-----9--|------7---------7-----|
--------------------|--14------11------8-----|--9-------------------|
--------------------|------------------------|----------------------|
--3-----------------|------------------------|----------------------|


                                                              
--8-----7------------|--3--------3------|--------------------|
--------------10-----|--------0---------|--0--------0--------|
-----7-----7------7--|--------0---------|--0-----0-----0-----|
---------------------|-----0------------|-----0-----------0--|
--9-----7------------|------------------|--------------------|
--------------10-----|--3---------------|--3-----------------|


                                                     --1324    
-----------3-----2--|--2--------2--------|--0-----0--2-----2--|
--3--------3-----3--|--3-----3-----3-----|--1-----1--1-----1--|
--0-----0-----0-----|--------2--------2--|-----0--------2-----|
-----0--------------|-----4--------------|-----------1--------|
--2-----------------|--3-----------------|--3-----------------|
--------------------|--------------------|--------------------|


                                                                 
--3-----------3-----||---5--------5--------|--7--------7--------|
--0--------0-----0--||---3-----3-----3-----|--0-----0-----0-----|
--------0-----------||*-----5-----------5--|-----7--------------|
-----2--------------||*--------------------|--5--------------5--|
--------------------||---5-----------------|--------------------|
--0-----------------||---------------------|--------------7-----|


                                                                            
-----7-----10---------|--12-------------12------|--10--------------10------|
--0-----0--8-------8--|--10---------10------10--|--10----------10------10--|
--7------------10-----|--9-------9--------------|--11------11--------------|
-----------9----------|--10--10-----------------|--12--12------------------|
----------------------|--0----------------------|--0-----------------------|
----------------------|-------------------------|--------------------------|


                                                  -2--44    
--7--------5--------|--3--------------|--0--------3--------|
--8-----8--6-----6--|--4-----4--------|--1-----1--3-----3--|
-----7-----------5--|--------3--------|--------0--------0--|
--9-----------5-----|-----3-----------|-----2--------0-----|
--------------------|-----------------|--0--------2--------|
-----------6--------|--4--------------|--------------------|


  -32-44   ---144---1  21---3                      -2--44    
--3--------3-----2--|--3---------------|--0--------3--------|
--3-----3--3-----3--|--0-----0---------|--1-----1--3-----3--|
--------0-----2-----|--------0------0--|--------0--------0--|
-----2-----0--------|-----0------------|-----2--------0-----|
--3-----------------|------------------|--0--------2--------|
--------------------|--3---------------|--------------------|


  -32-44   ---144---1                         21---3                           
--3--------3-----2--|--3--------3---------||--3--------3------|--------------||
--3-----3--3-----3--|--0-----0-----0------||--0-----0---------|--------------||
--------0-----2-----|-----0-----------0--*||--------0---------|--------------||
-----2-----0--------|--------------------*||-----0------------|--------------||
--3-----------------|---------------------||------------------|--------------||
--------------------|--0------------------||--3---------------|--------------||
Comments