Jean Leloup - Voyager Chords & Tabs

 

Voyager Chords & Tabs

Jean Leloup Chords & Tabs

Version: 1 Type: Tab

Voyager Tab

voyager tab by jean le loup


intro play fast

|-5-5-5----2-2-2----0-0-0-------0---0---|
|---0-7----3-3-3----5-5-5-----0-0-0-0---|
|---7-7----4---4----4---4-4\--2-2-2-2---|x 2
|-----------------------------2---2-----|
|---------------------------------------|
|---------------------------------------|

|-0-1-0-1-0-1-2--|   |--0----5---|
|-0-2-0-2-0-2-0--|   |--3----7---|
|-3-3-3-3-3-3-3--|x2 |--2----7---|
|----------------|   |--2----7---|
|----------------|   |-----------|
|----------------|   |-----------|

|-0-1-0-1-0-1-2--|   |--0----5---|
|-0-2-0-2-0-2-0--|   |--3----7---|
|-3-3-3-3-3-3-3--|x2 |--2----7---|
|----------------|   |--2----7---|
|----------------|   |-----------|
|----------------|   |-----------|
[ Tab from: http://www.guitartabs.cc/tabs/j/jean_leloup/voyager_tab.html ]
|-5-5----2-2----|
|-0-7----3-3----|
|-7-7----4-4----|
|---------------|x 4
|---------------|
|---------------|

|-5-5-5----2-2-2----0-0-0-------0---0---|
|---0-7----3-3-3----5-5-5-----0-0-0-0---|
|---7-7----4---4----4---4-4\--2-2-2-2---|x 2
|-----------------------------2---2-----|
|---------------------------------------|
|---------------------------------------|

|-0-1-0-1-0-1-2--|   |--0----5---|
|-0-2-0-2-0-2-0--|   |--3----7---|
|-3-3-3-3-3-3-3--|x2 |--2----7---|
|----------------|   |--2----7---|
|----------------|   |-----------|
|----------------|   |-----------|

|-5-5----2-2----|
|-0-7----3-3----|
|-7-7----4-4----|
|---------------|x 4
|---------------|
|---------------|





steve,,, pompom020366@hotmail.com      pompom@sympatico.ca