Jcs - Nang Makilala Ka Chords & Tabs

 

Nang Makilala Ka Chords & Tabs

Jcs Chords & Tabs

Version: 1 Type: Tab 0 ratings
1 star 2 stars 3 stars 4 stars 5 stars
comments

Nang Makilala Ka Tab

   
Author/Artist: JCS
Title: Nang Makilala Ka
Album: Perst ALbum
Transcribed by: Evenezer Brunio & Leo Angelo Brunio
Email: android_abzd@mailcity.com/lazer_ben@mailcity.com
University of San Agustin HS Dept. Iloilo City 
Tropang Trompo
ABZD_Bantots

Intro:  D  C >2x

Verse:   D  C>4x
	 
Chorus:	  G F#m Em D >3x
	  G  A

(back to intro chords)

  Verse 1

     Nagiisip-isip at di makatulog
     Magmula nang makilala ka
     Larawan mo ay laging nasa isip ko
     Kailan kaya kita makakasama

   Chorus:

     Nang makilala ka akoy biglang nagbago
     Luntian kong mundo'y naging makulay sa iyo
     Nang makilala ka akoy biglang nagbago
     Kailan kaya 
     Kailan kaya 
     Tayo 

   Verse 2

     Kailangan bang laging ganito
     Di ko masabi ang lahat ng gusto
     Bakit kaya tayoy laging magkalayo
     Kailan kaya nila tatawaging tayo


Solo (lead):
[ Tab from: http://www.guitartabs.cc/tabs/j/jcs/nang_makilala_ka_tab.html ]
------------------------------------------------------------------------------
----------11-11---13-11---11--13-------------------9---11---------------------
--10--12---------------------------10--8-8-----8------------8---10b--8h10-8---
-------------------------------------------10---------------------------------
------------------------------------------------------------------------------
------------------------------------------------------------------------------
                                                                              

----------------------------------11--11h13--11----------11-11--11h13-11------
----------11-11---13-11---11--13-----------------11h13--------------------13--
--10--12----------------------------------------------------------------------
------------------------------------------------------------------------------
------------------------------------------------------------------------------
------------------------------------------------------------------------------
                                                                              

------------------------------------------------------------------------------
-11--11-13b--11h13--11--------------------------------------------------------
-------------------------13b--------------------------------------------------
------------------------------13----------------------------------------------
------------------------------------------------------------------------------
------------------------------------------------------------------------------

That's all poks!!! Madali lang ito, bobo kana kung hindi mo makuha!!! 

it's 100% accurate

* i saw it in one of their concerts in Iloilo City, Philippines. See U next time!!!!!!
Comments