Jazzberry Ram - Dont You Love Yourself Chords & Tabs

 

Dont You Love Yourself Chords & Tabs

Jazzberry Ram Chords & Tabs

Version: 2 Type: Bass Tab 0 ratings
1 star 2 stars 3 stars 4 stars 5 stars
comments

Dont You Love Yourself Bass Tab

   
BASS GUITAR TAB
---------------
Song:  Don't You Love Yourself
Artist: Jazzberry Ram

  Intro
G |-11-12/14---12-11\9---9-11/12---11-9\7-/-11-------------|
D |--------------------------------------------------------|
A |--------------------------------------------------------|
E |--------------------------------------------------------|

    (play quick)                (slower.)
G |-141211-141211-1211-9-1211-9-11-9-7-11-9-7-11-9-7-11-9-7|
D |--------------------------------------------------------|
A |--------------------------------------------------------|
E |--------------------------------------------------------|
[ Tab from: http://www.guitartabs.cc/tabs/j/jazzberry_ram/dont_you_love_yourself_btab_ver_2.html ]
  Main Verse and Chorus Riff
    D       A       C       G
G |---------------------------------|
D |---------------------------------|  Repeat until after
A |-55-55-----------33-33-----------|  2nd chorus.
E |---------55-55-----------33-33---|


  Interlude (after 2nd chorus)
G |-----------------------------------------------|
D |-----------------------------------------------|
A |-5-55-55-55-5---------5-55-55-55-5-----0-3-0h3-|  X3
E |--------------5--------------------5-----------|


G |--------------------------------------------------------|
D |--------------------------------------------------------|
A |-5-55-5--------5-55-5---0-3-0h3-5-55-5--------5---3---'-|
E |--------5-55-5--------5----------------5-55-5---------5-|


Repeat verse riff until the end of the song.

The note/chord pattern for the song is basically A D-A-C-G
tune that repeats.  Play around to find variations in the
D-A-C-G main riff cuz it makes this song more fun to play!


Tabbed by Kent Wiezel
kwiezel@hotmail.com
Comments