Jaya The Cat - Dominant Paradigm Chords & Tabs

 

Dominant Paradigm Chords & Tabs

Jaya The Cat Chords & Tabs

Version: 1 Type: Tab 0 ratings
1 star 2 stars 3 stars 4 stars 5 stars
comments

Dominant Paradigm Tab

   
-------------------------------------------------------------------------------
			     Dominant Paradigm - Jaya The Cat
-------------------------------------------------------------------------------
Tabbed by:Striff
Email:superporky2001@hotmail.com

Tuning:EADGBe

Si vous avez des corrections ou d'autres Tabs de Jaya The Cat, n'hesitez pas, Ecrivez moi!!


...... : Palm Mute
x x x  : Mute note


     Intro Guitar 1 - Clean tone With Wah-Wah (Listen to the song)

e|------------------------------------------7---------7----------------7-----|
B|------------------------------------------8---------8----------------8-----|
G|------------------------------------------9---------9----------------9-----|
D|------------------------------------------9---------9----------------9-----|
A|---7-7---7-7--7-7---7-7-7-7-7-7-7-7-7-7-7-7---------7--------7-7-7-7-7-----|
E|---------------------------------------------------------------------------|

     ......................................                    .......
     xxxxxxxxxxxxxxxxxxxxxxxxxxxxxxxxxxxxxx                    xxxxxxx
     


e|-------7-------------------------------------------------------------------|
B|-------8-------------------------------------------------------------------|
G|-------9-------------------------------------------------------------------|
D|-------9-------------------------------------------------------------------|
A|---7-7-7-------------------------------------------------------------------|
E|---------------------------------------------------------------------------|

     ...
     xxx

   
     Intro Guitar 2 - Clean Tone - Ska Strumming

e|---7---7---3---5---|
B|---8---8---3---5---|
G|---9---9---4---6---|
D|---9---9---5---7---|
A|---7---7---5---7---|
E|-----------3---5---|



     Verses (Same as Intro GTR 2)
[ Tab from: http://www.guitartabs.cc/tabs/j/jaya_the_cat/dominant_paradigm_tab.html ]
e|---7---7---3---5---|
B|---8---8---3---5---|
G|---9---9---4---6---|
D|---9---9---5---7---|
A|---7---7---5---7---|
E|-----------3---5---|



     Chorus x 8 - with Heavy Distortion

e|---------------------------------------------------------------------------|
B|---------------------------------------------------------------------------|
G|---9---9-9---9-9-----------------------------------------------------------|
D|---9---9-9---9-9---5-5-5---7-7-7-------------------------------------------| 
A|---7---7-7---7-7---5-5-5---7-7-7-------------------------------------------|
E|-------------------3-3-3---5-5-5-------------------------------------------|


     Before Verses (Clean tone with WAH-WAH)

e|--------------------------------------------|
B|--------------------------------------------|
G|--------------------------------------------|
D|--------------------------------------------|
A|---7-7---7-7--7-7---7-7-7-7-7-7-7-7-7-7-7---|
E|--------------------------------------------|

     ......................................   
     xxxxxxxxxxxxxxxxxxxxxxxxxxxxxxxxxxxxxx  

     
     Then Verses

e|---7---7---3---5---|
B|---8---8---3---5---|
G|---9---9---4---6---|
D|---9---9---5---7---|
A|---7---7---5---7---|
E|-----------3---5---|


     Chorus x 8 - with Heavy Distortion

e|---------------------------------------------------------------------------|
B|---------------------------------------------------------------------------|
G|---9---9-9---9-9-----------------------------------------------------------|
D|---9---9-9---9-9---5-5-5---7-7-7-------------------------------------------| 
A|---7---7-7---7-7---5-5-5---7-7-7-------------------------------------------|
E|-------------------3-3-3---5-5-5-------------------------------------------|


     Then Pickslide along the Neck Between string A & D and finish with Chorus x 4 


ENJOY !!!!!!



| /  slide up
| \  slide down
| h  hammer-on
| p  pull-off
| ~  vibrato
| +  harmonic
| x  Mute note
===============================================================================
Comments