Jaya The Cat - Convenience Store Chords & Tabs

 

Convenience Store Chords & Tabs

Jaya The Cat Chords & Tabs

Version: 1 Type: Tab 0 ratings
1 star 2 stars 3 stars 4 stars 5 stars
comments

Convenience Store Tab

-------------------------------------------------------------------------------
			     Convenience Store - Jaya The Cat
-------------------------------------------------------------------------------
Tabbed by: Striff
Email: Superporky2001@Hotmail.com

Si vous avez des corrections ou d'autres Tabs de Jaya The Cat, n'hesitez pas, Ecrivez moi!!

 A strange mix of punk rock, hip-hop, ska, and maybe a little dancehall
style creeping in on the backbeat. These cats have the rock and roll guitars
grooving over the turntable scratches and the vocals that cry out for you
to wave your hands in the air. The rough vocals pull out into the forefront,
and the rhythms take the songs into some hardcore Bosstone sound,
mixing in with some more old school funk vibe

Tuning:EADGBe


...... : Palm Mute
   /   : Slide up


       Intro
[ Tab from: http://www.guitartabs.cc/tabs/j/jaya_the_cat/convenience_store_tab.html ]
e|--------------------------------------------------------------------|
B|--------------------------------------------------------------------|
G|--------------------------------------------------------------------|
D|---7-7-7-7-7----------------------4/7---7---7---4---5---4-----------|x2
A|---7-7-7-7-7---4---5---4------------------------------------5-----5-|
E|---5-5-5-5-5---------------5----------------------------------------|

PM : ......... 



       Couplets (Ska Strumming)

e|---5---5---3---3---|
B|---5---5---3---3---|
G|---6---6---4---4---|
D|-------------------| Repeat Whole song
A|-------------------|
E|-------------------|


       Après la Basse (1:30 min):


e|--5-5-5---5---5---3---3---|
B|--5-5-5---5---5---3---3---|
G|--6-6-6---6---6---4---4---|
D|--------------------------|
A|--------------------------|
E|--------------------------|



       Outro

e|--------------------------------------------------------------------|
B|--------------------------------------------------------------------|
G|--------------------------------------------------------------------|
D|---7-7-7-7-7----------------------4/7---7---7---4---5---4-----------|
A|---7-7-7-7-7---4---5---4------------------------------------5-----5-|
E|---5-5-5-5-5---------------5----------------------------------------|

PM : ......... 







===============================================================================
Comments