Jay Z - Big Pimpin Chords & Tabs

 

Big Pimpin Chords & Tabs

Jay Z Chords & Tabs

Version: 3 Type: Tab 0 ratings
1 star 2 stars 3 stars 4 stars 5 stars
comments

Big Pimpin Tab

Song is in standard tuning
Jay-z Big pimpin

----------------------------------------------------
----------------------------------------------------
5--5--5--5-4-5-7-7-4h5------4--4--4--4--2-4-7-7-4h5-
----------------------------------------------------
----------------------------------------------------
----------------------------------------------------
[ Tab from: http://www.guitartabs.cc/tabs/j/jay_z/big_pimpin_tab_ver_3.html ]
----------------------------------------------------
----------------------------------------------------
5--5--5--5-4-5-7-7-4h5------4--4--4--4--2-4-7-7-4h5-
----------------------------------------------------
----------------------------------------------------
----------------------------------------------------

----------------------------------------------------
----------------------------------------------------
5--5--5--5-4-5-7-7-4h5------4--4--4--4--2-4-7-7-4h5-
----------------------------------------------------
----------------------------------------------------
----------------------------------------------------

----------------------------------------------------
----------------------------------------------------
5--5--5--5-4-5-7-7-4h5------4--4--4--4--2-4-7-7-4h5-
----------------------------------------------------
----------------------------------------------------
----------------------------------------------------

this a fun song to play
Comments